Oops, an error
Loading. Please wait.

Requiem tab

version 2
version 2

Whole song

Interactive

2,773 views 3 this week
1 commentread comment
1 2 3 4 5
1 last vote to show rating
add to favorites
×
Save as Personal and add changes to this tab that will be seen only by you. Learn more ›
×
You can save this tab as Personal to edit and correct it or add notes. All changes will be seen only by you. Learn more »
launch autoscroll
font size
0
reset
how to read this tab
guitar tuner
edit
Autoscroll
slow
fast
+/-
esc
set tempo
stop
Requiem - The Fifth
Trans Siberian Orchestra
Transcribed by: Tim Gielissen (timgte@hotmail.com)

I know there's another tab for this song, I don't want to say mine
is better, just a bit different. Enjoy!

Intro chords: G5  Eb5 , F5  D5

Riff A
|----------------------------------|
|----------------------------------|
|----------------------------------|
|-----------3-----5-3-------3------|
|-3-5-6-5-6---6-5-----6-5-6---6-5--|
|----------------------------------|

Riff A1 (Sets in later)
|----------------------------------|
|----------------------------------|
|-12-12-12—8-~---10-10-10--7-~-----|
|----------------------------------|
|----------------------------------|
|----------------------------------|

Riff B
|--------------------------------------------|
|--------------------------------------------|
|--------------------------------------------|
|---------------------------5-6-5-3---3------|
|-3~----5~----6~----8~--------------6---6-5--|
|----3~----3~----3~----3~--------------------|

Riff A
and
Riff A2
|--------------------------------------------|
|--------------------------------------------|
|-12-12-12—8-~---10-10-10--7-~---3~--7~--5~--|
|--------------------------------------------|
|--------------------------------------------|
|--------------------------------------------|

Riff C1
|----------------------------|--|----------------------------|--|
|----------------------------|--|----------------------------|--|
|----------------------------|--|----------------------------|--|
|----------------------------|2x|----------------------------|2x|
|--3-5-6--6--6--6-5-3--3--3--|--|--5-6-8--8--8--8-6-5--5--5--|--|
|----------------------------|--|----------------------------|--|


|------------------------------|--|--------------------------------|--|
|------------------------------|--|--------------------------------|--|
|------------------------------|--|--------------------------------|--|
|------------------------------|2x|--------------------------------|2x|
|--6-8-10--10-10--10-8-6--6--6-|--|-8-10-11--11-11--11-10-8--8--8--|--|
|------------------------------|--|--------------------------------|--|

|--------------------------------------|--|
|--------------------------------------|--|
|--------12--12--12--12----------------|--|
|--10-14----------------14-10--10--10--|--|
|--------------------------------------|--|
|--------------------------------------|--|

|--------------------------------------|--|
|--------------------------------------|--|
|--------13--13--13--13----------------|--|
|--10-14----------------14-10--10--10--|--|
|--------------------------------------|--|
|--------------------------------------|--|

[short pauze]

Riff C (only first measure)

[short pauze]

Riff C          (once)

Repeat this one more time after riff C
|--------------------------------------|--|
|--------------------------------------|--|
|--------12--12--12--12----------------|--|
|--10-14----------------14-10--10--10--|--|
|--------------------------------------|--|
|--------------------------------------|--|

Riff A          (2 times)
Riff A + A2     (2 times)

Riff B          (2 times)

Play slower
|-------------------|
|-------------------|
|-------------------|
|--5-6-5-3---3------|
|----------6---6-5--|
|-------------------|

End chords: G5  Eb5 , F5  D5
 
C5 (!!)

Well, hope you liked it. If you have anything to say (good or bad) please mail me at timgte@hotmail.com

            
            
Suggest correction
Creating personal tab
Creating personal tab
You can edit any tab online and save it as your Personal.

You can edit, replace or remove any tab part or add personal notes – all changes will be seen only by you.

Personal tabs can be accessed anytime from any device, even offline.
Learn more »
Give kudos to tab author, rate the tab!
1 2 3 4 5
comments
print report bad tab
1 comment total.
0 reply
Belgarion89 10 May 19, 2008 03:15 PM

Pretty good, the only problem is you need to drop a D, so that throws Riff B off a little. Other than that, amazing job on the tab dude!

guest
Wanna post a correction for this tab? Suggest correction