Oops, an error
Loading. Please wait.

The Mountain tab

version 2
version 2

Whole song

448 views 3 this week
5 commentsread comments
1 2 3 4 5
x 3
add to favorites
×
Save as Personal and add changes to this tab that will be seen only by you. Learn more ›
×
You can save this tab as Personal to edit and correct it or add notes. All changes will be seen only by you. Learn more »
launch autoscroll
font size
0
reset
how to read this tab
guitar tuner
edit
Autoscroll
slow
fast
+/-
esc
set tempo
stop
Author
---------------------------------------------------------------------------------------------------------------
                                  THE MOUNTAIN - TRANS-SIBERIAN ORCHESTRA
---------------------------------------------------------------------------------------------------------------
Tabbed by: PMROBERT1919
E-mail:

***First Tab ever attempted*** 
Have to figure out the solo. Please all suggestions critiques are welcome...

************************************

| /   slide up
| \   slide down
| h   hammer-on
| p   pull-off
| ~   vibrato
| +   harmonic
| x   Mute note
| b   Bend

************************************

Tuning: EADGBe

Guitar: 00:46
e|----------------------------------------------------------------------------/19b20r19-----------------------|
B|----------------------12b13r12~~~~~~~----------12b13r12~/15b16r15~/17b18r17-----------15b16r15/17b18r17\16~~|
G|------------------------------------------------------------------------------------------------------------|
D|---3~~~~~~~~~~~~~~----------------------3~~~~~~-------------------------------------------------------------|
A|---3~~Let Ring~~~~----------------------3~~~~~~-------------------------------------------------------------|
E|---1~~~~~~~~~~~~~~----------------------1~~~~~~-------------------------------------------------------------|
      
Guitar: 01:19
e|------------------------------------------------------------------------------------------------------------|
B|------------------------------------------------------------------------------------------------------------|
G|-------------------------------------------------------------------5~~~~~~~~~~~~~~~~------------------------|
D|-----3~~~~~~~~~~~------3~~~~~~~~~~~------3~~~~~~~~~~~------3~~~~~~~5~~~~~~~~~~~~~~~~------------------------|
A|---------2~~~3~~~~~--------2~~~3~~~~~--------2~~~3~~~~~--------2~~~3~~~~Let Ring~~~~------------------------|
E|-1~~~~~~~~~~~~~~~--1~~~~~~~~~~~~~~~--1~~~~~~~~~~~~~~~--1~~~~~~~~~~~~~~~-------------------------------------|

Guitar: 01:35
e|------------------------------------------------------------------------------------------------------------|
B|------------------------------------------------------------------------------------------------------------|
G|------------------------------------------------------------------------------------------------------------|
D|--------------------------------------------3-1-------1~~~~-------------------------------------------------|
A|--------1-3---3-2---2-1---1---------1-3---3-----3---3--------(repeat x2)------------------------------------|
E|--1-3-4-----4-----3-----2-----1-3-4-----4---------4---------------------------------------------------------|

Guitar: 01:50
e|------------------------------------------------------------------------------------------------------------|
B|------------------------------------------------------------------------------------------------------------|
G|------------------------------------------------------------------------------------------------------------|
D|-------2-5-2-5-6-2-6-5-2-5-------2-5-2-5-6-2-6-5~~~------2-5-2-5-7-2-7-5-2-5-------2-5-2-5-7-2-7-5~~~~------|
A|-3-5-6---------------------3-5-6-------------------3-5-6---------------------3-5-6--------------------------|
E|------------------------------------------------------------------------------------------------------------|


Guitar: 02:04
e|------------------------------------------------------------------------------------------------------------|
B|------------------------------------------------------------------------------------------------------------|
G|------------------------------------------------------------------------------------------------------------|
D|--------------------------------------------3-1-------1~~~~-------------------------------------------------|
A|--------1-3---3-2---2-1---1---------1-3---3-----3---3--------(repeat x2)------------------------------------|
E|--1-3-4-----4-----3-----2-----1-3-4-----4---------4---------------------------------------------------------|

Guitar: 02:16
e|------------------------------------------------------------------------------------------------------------|
B|------------------------------------------------------------------------------------------------------------|
G|------------------------------------------------------------------------------------------------------------|
D|-------2-5-2-5-6-2-6-5-2-5-------2-5-2-5-6-2-6-5~~~------2-5-2-5-7-2-7-5-2-5-------2-5-2-5-7-2-7-5~~~~------|
A|-3-5-6---------------------3-5-6-------------------3-5-6---------------------3-5-6--------------------------|
E|------------------------------------------------------------------------------------------------------------|

Guitar: 02:29
e|------------------------------------------------------------------------------------------------------------|
B|------------------------------------------------------------------------------------------------------------|
G|------------------------------------------------------------------------------------------------------------|
D|--------------------------------------------3-1-------1~~~~-------------------------------------------------|
A|--------1-3---3-2---2-1---1---------1-3---3-----3---3--------(repeat x2)------------------------------------|
E|--1-3-4-----4-----3-----2-----1-3-4-----4---------4---------------------------------------------------------|

Guitar: 02:40
e|------------------------------------------------------------------------------------------------------------|
B|------------------------------------------------------------------------------------------------------------|
G|------------------------------------------------------------------------------------------------------------|
D|-------2-5-2-5-6-2-6-5-2-5-------2-5-2-5-6-2-6-5~~~------2-5-2-5-7-2-7-5-2-5-------2-5-2-5-7-2-7-5~~~~------|
A|-3-5-6---------------------3-5-6-------------------3-5-6---------------------3-5-6--------------------------|
E|------------------------------------------------------------------------------------------------------------|

Guitar: 02:52
e|------------------------------------------------------------------------------------------------------------|
B|------------------------------------------------------------------------------------------------------------|
G|------------------------------------------------------------------------------------------------------------|
D|--------------------------------------------3-1-------1~~~~-------------------------------------------------|
A|--------1-3---3-2---2-1---1---------1-3---3-----3---3--------(repeat x2)------------------------------------|
E|--1-3-4-----4-----3-----2-----1-3-4-----4---------4---------------------------------------------------------|

Guitar: 03:03
e|------------------------------------------------------------------------------------------------------------|
B|------------------------------------------------------------------------------------------------------------|
G|------------------------------------------------------------------------------------------------------------|
D|-------2-5-2-5-6-2-6-5-2-5-------2-5-2-5-6-2-6-5~~~------2-5-2-5-7-2-7-5-2-5-------2-5-2-5-7-2-7-5~~~~------|
A|-3-5-6---------------------3-5-6-------------------3-5-6---------------------3-5-6--------------------------|
E|------------------------------------------------------------------------------------------------------------|

Guitar: 03:14
e|------------------------------------------------------------------------------------------------------------|
B|------------------------------------------------------------------------------------------------------------|
G|------------------------------------------------------------------------------------------------------------|
D|--------------------------------------------3-1-------1~~~~-------------------------------------------------|
A|--------1-3---3-2---2-1---1---------1-3---3-----3---3-------------------------------------------------------|
E|--1-3-4-----4-----3-----2-----1-3-4-----4---------4---------------------------------------------------------|

Guitar: 03:21
e|------------------------------------------------------------------------------------------------------------|
B|------------------------------------------------------------------------------------------------------------|
G|--------------------------------------------5--3------------------------------------------------------------|
D|--------------------------------------------3--1--6--5------------------------------------------------------|
A|--------1-3---3-2---2-1---1---------1-3---3-------4--3--5--3--3--3~~~---------------------------------------|
E|--1-3-4-----4-----3-----2-----1-3-4-----4---------------3--1--1--1~~~---------------------------------------|
                                                                x
Guitar: 03:30
e|------------------------------------------------------------------------------------------------------------|
B|------------------------------------------------------------------------------------------------------------|
G|------------------------------------------------------------------------------------------------------------|
D|-3-1----------------------33~~33~~---3-1---------------------33~~33~~---------------------------------------|
A|-----4-3-4-3-1---1--------33~~33~~-------4-3-4-3-1---1-------33~~33~~---------------------------------------|
E|---------------4----4-3-1-11~~11~~-----------------4---4-3-1-11~~11~~---------------------------------------|
                            x   x                              x   x      
Guitar: 03:50
e|------------------------------------------------------------------------------------------------------------|
B|------------------------------------------------------------------------------------------------------------|
G|------------------------------------------------------------------------------------------------------------|
D|--------5-8--(repeat x16)-----------------------------------------------------------------------------------|
A|-----1113-6-------------------------------------------------------------------------------------------------|
E|-1114-------------------------------------------------------------------------------------------------------|

Guitar: 04:25
e|------------------------------------------------------------------------------------------------------------|
B|------------------------------------------------------------------------------------------------------------|
G|-55-8/10--55/8/10--55/8/10--55/8/10------3--3--3--3--3~~~~~~~~----------------------------------------------|
D|-----------------------------------------3--3--3--3--3~~~~~~~~-3~~~~~~~~~~~~~--------------------3----------|
A|-33/6/8---33/6/8---33/6/8---33/6/8-------1--1--1--1--1~~~~~~~~-3~~~~~~~~~~~~~--------------------3----------|
E|---------------------------------------------------------------1~~~~~~~~~~~~~--------------------1----------|


***************************************************************************************************************
***************************************************************************************************************

            
            
Suggest correction
Creating personal tab
Creating personal tab
You can edit any tab online and save it as your Personal.

You can edit, replace or remove any tab part or add personal notes – all changes will be seen only by you.

Personal tabs can be accessed anytime from any device, even offline.
Learn more »
Give kudos to tab author, rate the tab!
1 2 3 4 5
comments
print report bad tab
5 comments total. Showing first comments.
0 reply
underwoodp91 10 Nov 22, 2015 02:01 PM

Is this the Rhythm Guitar?

0 reply
underwoodp91 10 Nov 22, 2015 02:26 PM

also GREAT tab, i had this all wrong

0 reply
belgardepreston 10 Jul 17, 2016 02:00 PM

Guitar: 01:50
D|-------3-5--5-6--6-5--5---------3-5--5-6--6-5~~~------3-5--5-7--7-5--5---
A|-3-5-7-----7----7----7----3-5-7-----7----7------3-5-7-----7----7----7----

D|--------3-5--5-7--7-5~~~~------|
A|--3-5-7-----7----7-------------|

guest
You may want to rate the tab now too:
select rating
Wanna post a correction for this tab? Suggest correction