Oops, an error
Loading. Please wait.

The Music Box Tab

version 1
version 1

Whole song

Interactive

19 views 6 this week
no commentswrite comment
1 2 3 4 5
3 more votes to show rating
add to favorites
launch autoscroll
font size
0
reset
how to read this tab
guitar tuner
Autoscroll
slow
fast
+/-
esc
set tempo
stop
Help us to improve Ultimate-Guitar.com Take our survey!
×
Author
Difficulty
intermediate
The Music Box, Trans-Siberian Orchestra
From the 2002 album: The Christmas Attic
Words and Music: Paul o'Neill
Key: C

[Intro]
   F           C/E           G7          C             F         C/E
e|-------------------------|-------------------------|-1-----------0-----------|
B|-------1-----------1-----|-1-----1p-0--1-----1-----|----1-----1--------1-----|
G|----2-----2-----0-----0--|----0-----0-----0-----0--|-------2--------0-----0--|
D|-3-----------2-----------|-0-----------------------|-3-----------2-----------|
A|-------------------------|-------------3-----------|-------------------------|
E|-------------------------|-------------------------|-------------------------|

   G7       C             F          C/E            G7          C
e|----------------------|-1-----------0-----------|-------------------------|
B|-1--1p-0--1-----1-----|----1-----1--------1-----|-1-----1-----1-----1-----|
G|-------0-----0-----0--|-------2--------0-----0--|----0-----0-----0-----0--|
D|-0--------------------|-3-----------2-----------|-0-----------------------|
A|----------3-----------|-------------------------|-------------3-----------|
E|----------------------|-------------------------|-------------------------|
                            
   F           C/E           G7            C
e|-1-----------0-----------|-------------|-------------3p-0--------|
B|----1-----1--------1-----|-1-----1p-0--|-1-----1-----------1--0--|
G|-------2--------0-----0--|----0-----0--|----0-----0--------------|
D|-3-----------2-----------|-0-----------|-------------------------|
A|-------------------------|-------------|-3-----------------------|
E|-------------------------|-------------|-------------------------|

   G                         G/B      G
e|-------------3-----------|----------------------|
B|-------3--------3-----3--|-3-----3--3--3-----0--|
G|----0-----0--------0-----|----0-----------0-----|
D|-------------------------|----------------------|
A|-------------------------|-2--------------------|
E|-3-----------------------|----------3-----------|

[Verse 1] 
   C                      C/E      C             Em
e|-------------0--------|-0-----------0--------|-------------0--------0--|
B|-------1--------1-----|----1-----1-----1-----|-------0--------0--------|
G|----0-----0--------0--|-------0-----------0--|----0-----0--------0-----|
D|----------------------|-2--------------------|-------------------------|
A|-3--------------------|----------3-----------|-------------------------|
E|----------------------|----------------------|-0-----------------------|

   Em/B                         Am                        Am/E     Am
e|-------0-----------0--------|-------------0--------0--|-------0--------0--------|
B|-0--------0-----------0-----|-------1--------1--------|-1--------1--------1-----|
G|----0--------0--0--------0--|----2-----2--------2-----|----2--------2--------0--|
D|-2--------------------------|-------------------------|-2-----------------------|
A|----------2-----------------|-0-----------------------|----------0--------------|
E|----------------------------|-------------------------|-------------------------|

   F                         F                         C
e|-------------1--------1--|-------1-----------------|-------------0--------0--|
B|-------1--------1--------|-1--------1--------1p-0--|-------1--------1--------|
G|----2-----2--------2-----|----2--------2-----------|----0-----0--------0-----|
D|-3-----------------------|-3--------------3--------|-------------------------|
A|-------------------------|-------------------------|-3-----------------------|
E|-------------------------|-------------------------|-------------------------|

   C/E      C                Em                                 Em/B
e|-------0--------0--------|-------------0--------0--|-------0--------0--------|
B|-1--------1--------1-----|-------0--------0--------|-0--------0--------0-----|
G|----0--------0--------0--|----0-----0--------0-----|----0--------0--------0--|
D|-2-----------------------|-------------------------|-2-----------------------|
A|----------3--------------|-------------------------|----------2--------------|
E|-------------------------|-0-----------------------|-------------------------|

   Am                        Am/E     Am                F
e|-------------0--------0--|-------0--------0--------|--1-----------1--------1--|
B|-------1--------1--------|-1--------1--------1p-0--|--------1--------1--------|
G|----2-----2--------2-----|----2--------2-----------|-----2-----2--------2-----|
D|-------------------------|-2-----------------------|--3-----------------------|
A|-0-----------------------|----------0--------------|--------------------------|
E|-------------------------|-------------------------|--------------------------|

   F                         C                         C/E      C
e|-------1-----------------|-------------0--------0--|-------0--------0--------|
B|-1--------1--------1p-0--|-------1--------1--------|-1--0-----1--------1-----|
G|----2--------2-----------|----0-----0--------0-----|-------------0--------0--|
D|-3--------------3--------|-------------------------|-2-----------------------|
A|-------------------------|-3-----------------------|----------3--------------|
E|-------------------------|-------------------------|-------------------------|

   F                          G                         C                          C
e|-1-----------1------------|-------------3-----------|-------------3p-0--------|-----|
B|-------1--------1-----0---|-------3--------3-----0--|-------1-----------1-----|--1--|
G|----2-----2--------2----0-|----0-----0--------0-----|----0-----0-----------0--|-----|
D|-3------------------------|-------------------------|-------------------------|-----|
A|--------------------------|-------------------------|-3-----------------------|--3--|
E|--------------------------|-3-----------------------|-------------------------|-----|

[Chorus] 
   F           C/E           G7         C             F           C/E
e|-------------------------|------------------------|-------------------------|
B|-------1-----------1-----|-------1----------1-----|-------1-----------1-----|
G|----2-----0-----0-----0--|----0----0-----0-----0--|----2-----0-----0-----0--|
D|-3-----------2-----------|-0----------------------|-3-----------2-----------|
A|-------------------------|------------3-----------|-------------------------|
E|-------------------------|------------------------|-------------------------|

   G7          C             F           C/E           G7          C
e|-------------------------|-------------------------|-------------------------|
B|-------1-----------1-----|-------1-----------1-----|-------1-----------1-----|
G|----0-----0-----0-----0--|----2-----0-----0-----0--|----0-----0-----0-----0--|
D|-0-----------------------|-3-----------2-----------|-0-----------------------|
A|-------------3-----------|-------------------------|-------------3-----------|
E|-------------------------|-------------------------|-------------------------|
                         
   F           C/E           G7            C
e|-------------------------|-------------|-------------3p-0-------|
B|-------1-----------1-----|-3-----1p-0--|-------1-----------1----|
G|----2-----0-----0-----0--|----0-----0--|----0-----0-----------0-|
D|-3-----------2-----------|-0-----------|------------------------|
A|-------------------------|-------------|-3----------------------|
E|-------------------------|-------------|------------------------|

   G                         G/B
e|-------------3-----------|-------------------------|
B|-------3--------3-----3--|-3-----3--3--3--------0--|
G|----0-----0--------0-----|----0-----------0h-2-----|
D|-------------------------|-------------------------|
A|-------------------------|-2-----------------------|
E|-3-----------------------|----------3--------------|

[Verse 2] 
   C                         C/E      C             Em
e|-------------0--------0--|-0-----------0--------|-------------0--------0-|
B|-------1--------1--------|----1-----1-----1-----|-------0--------0-------|
G|----0-----0--------0-----|-------0-----------0--|----0-----0--------0----|
D|-------------------------|-2--------------------|------------------------|
A|-3-----------------------|----------3-----------|------------------------|
E|-------------------------|----------------------|-0----------------------|

            Em/B             Am                     Am/E     Am
e|-------0--------0--------|----------0--------0--|-------0--------0--------|
B|-0--------0--------0-----|-------1-----1--------|-1--------1--------1-----|
G|----0--------0--------0--|----2-----------2-----|----2--------2--------0--|
D|-2-----------------------|----------------------|-2-----------------------|
A|----------2--------------|-0--------------------|----------0--------------|
E|-------------------------|----------------------|-------------------------|

   F                         F                         C
e|-1-----------1--------1--|-------1-----------------|-------------0--------0--|
B|-------1--------1--------|-1--------1--------1p-0--|-------1--------1--------|
G|----2-----2--------2-----|----2--------2--------0--|----0-----0--------0-----|
D|-3-----------------------|-3--------------3--------|-------------------------|
A|-------------------------|-------------------------|-3-----------------------|
E|-------------------------|-------------------------|-------------------------|

   C/E      C                Em                              Em/B
e|-------0--------0--------|----------0--------0--|-------0--------0--------|
B|-1--------1--------1-----|-------0-----0--------|-0--------0--------0-----|
G|----0--------0--------0--|----0-----------0-----|----0--------0--------0--|
D|-2-----------------------|----------------------|-2-----------------------|
A|----------3--------------|----------------------|----------2--------------|
E|-------------------------|-0--------------------|-------------------------|

   Am                        Am/E     Am               F
e|-------------0--------0--|-------0--------0--------|-------------1--------1--|
B|-------1--------1--------|-1--------1--------1p-0--|-------1--------1--------|
G|----2-----2--------2-----|----2--------2-----------|----2-----2--------2-----|
D|-------------------------|-2-----------------------|-3-----------------------|
A|-0-----------------------|----------0--------------|-------------------------|
E|-------------------------|-------------------------|-------------------------|

   F                         C                         C/E      C
e|-------1-----------------|-------------0--------0--|-------0--------0--------|
B|-1--------1--------1p-0--|-------1--------1--------|-1--------1--------1-----|
G|----2--------2-----------|----0-----0--------0-----|----0--------0--------0--|
D|-3--------------3--------|-------------------------|-2-----------------------|
A|-------------------------|-3-----------------------|----------3--------------|
E|-------------------------|-------------------------|-------------------------|

   F                         G                         C                          C
e|-1-----------1-----------|-------------3-----------|-------------3p-0--------|-----|
B|-------1--------1-----0--|-------3--------3-----0--|-------1-----------1-----|--1--|
G|----2-----2--------2-----|----0-----0--------0-----|----0-----0-----------0--|-----|
D|-3-----------------------|-------------------------|-------------------------|-----|
A|-------------------------|-------------------------|-3-----------------------|--3--|
E|-------------------------|-3-----------------------|-------------------------|-----|

[Chorus] 
   F           C/E           G7          C             F           C/E
e|-------------------------|-------------------------|-------------------------|
B|-------1-----------1-----|-------1-----------1-----|-------1-----------1-----|
G|----2-----0-----0-----0--|----0-----0-----0-----0--|----2-----0-----0-----0--|
D|-3-----------2-----------|-0-----------------------|-3-----------2-----------|
A|-------------------------|-------------3-----------|-------------------------|
E|-------------------------|-------------------------|-------------------------|

   G7          C             F           C/E           G7          C
e|-------------------------|-------------------------|------------------------|
B|-------1-----------1-----|-------1-----------1-----|-------1-----------1----|
G|----0-----0-----0-----0--|----2-----0-----0-----0--|----0-----0-----0-----0-|
D|-0-----------------------|-3-----------2-----------|-0----------------------|
A|-------------3-----------|-------------------------|-------------3----------|
E|-------------------------|-------------------------|------------------------|

   F           C/E           G7                        C                          C
e|-------------------------|-------------1-----------|-------------3p-0--------|-----|
B|-------1-----------1-----|-------1--------1--------|-------1-----------1-----|--1--|
G|----2-----0-----0-----0--|----0-----0--------0-----|----0-----0-----------0--|-----|
D|-3-----------2-----------|-0--------------------0--|-------------------------|-----|
A|-------------------------|-------------------------|-3-----------------------|--3--|
E|-------------------------|-------------------------|-------------------------|-----|


************************************

| h   Hammer-on
| p   Pull-off

************************************
Suggest correction
Give kudos to tab author, rate the tab!
1 2 3 4 5
comments
print report bad tab
guest
You may want to rate the tab now too:
select rating
Wanna post a correction for this tab? Suggest correction