Oops, an error
Loading. Please wait.

The Silent Nutcracker Tab

version 1
version 1

Whole song

Interactive

43,323 views 126 this week
5 commentsread comments
1 2 3 4 5
x 27
add to favorites
launch autoscroll
font size
0
reset
how to read this tab
guitar tuner
Autoscroll
slow
fast
+/-
esc
set tempo
stop
Help us to improve Ultimate-Guitar.com Take our survey!
×
Author
Difficulty
Tuning
intermediate
D G C F A D
Ahh yes, it's that time of year again, don't you just love it?
This is a very nice song to play for your family, friends, or for anybody.
Tune your guitar (acoustic strongly recommended, of course) a whole step down to play this.

d|----------0-0|-2----0-|---------0-0-|-2---0--|------------------------------|
A|-3--3-3-3-0--|-3-3--0-|-3-3-3-3-0---|-3-0-0--|-1--3-1--0--------------------|
F|-0--------0--|-4----0-|-0-------0---|-4---0--|-0---------2--0---------------|
C|----------2--|------2-|---------2---|-----2--|-2---------4----4--0----------|
G|-------------|--------|-------------|--------|------------------------------|
D|-------------|--------|-------------|--------|------------------------------|


-----------------------|---------------------|------------------------------|
-0---1-0---------------|--------------------0|-1----0-------3---------------|
-0---------2-0--------0|---------2-0---------|--------2--0--2---------------|
-0---------------4-2---|-4--2-1--------4-2---|--------------0---0-----------|
-------------2---------|-3----2----------3---|-0----------------------------|
-------------0---------|-----------0---------|------------------------------|


-----------0--0|-2-----0-|-----------0--0|-2-----0-|------------------------|
-3--3-3-3--0---|-3--3--0-|-3--3-3-3--0---|-3--3--0-|-1--3-1--0--------------|
-0---------0---|-4-----0-|-0---------0---|-4-----0-|-0---------2--0-----2---|
-0---------2---|-------2-|-0---------2---|-------2-|-2---------4----4-------|
---------------|---------|---------------|---------|------------------------|
---------------|---------|---------------|---------|------------------------|


----0---------------|-0-------0-2--0----2|-3---2-0---2-3--|-----------------|
-3-------1-0-------3|-1--3-1----3----3---|-0--------------|-1-0-1-0-1--0----|
------0-------2-0---|-0---------2--------|-0--------------|-0---------------|
--------------------|-----------0--------|----------------|-2---------------|
-2------------------|-0------------------|----------------|-3---------------|
-----------0--------|--------------------|---------------3|-----------------|


--------------0-|-1-0-1-0--------|--------|------------|--------------------|
--3---------1---|---------3-1----|----1p0-|------------|--------------------|
----------0-----|-2-0-2-0---0-0--|-1----0-|-2-2-2-2----|-2-2-2-2------------|
--------2-------|---------3---2-2|-3------|-3-------4-5|-3-------4-5--------|
------3---------|---------------3|--------|-5-------6-7|-5-------6-7--------|
----------------|----------------|--------|------------|--------------------|


----------------|---------1--3-1----|-------------|------------0------------|
-1-1-1-1-1-0----|-1-0-----0------3-0|-1-0-1-0-1--0|-3--------1--------------|
-1-----------2-0|-0---2-0-0---------|-0-----------|--------0----------------|
-0--------------|-3-------0---------|-2-----------|------2------------------|
----------------|-------------------|-3-----------|----3--------------------|
----------------|-------------------|-------------|-------------------------|


-1-0-1-0--------|---------|------------|------------|---------5-3|-0---------|
---------3-1----|-----1p0-|------------|------------|-1-1-1-1-3--|-----3---1-|
-2-0-2-0---0-0--|--1----0-|-2-2-2-2----|-2-2-2-2----|-1-------0--|-------0---|
---------3---2-2|--3------|-3-------4-5|-3-------4-5|-0-------5--|---2-------|
---------------3|---------|-5-------6-7|-5-------6-7|------------|-3---------|
----------------|---------|------------|------------|------------|-----------|


--|------------|-0----------|------------|------------|------------|---------|
--|------------|-----3---1--|------------|------------|-----1------|---------|
--|-0---0-2-0--|-------0---0|-0---0-2-0--|-0---0-2-0--|---------0--|-0-----2-|
-2|---2-------2|---2--------|---2-------2|---2--------|-2----------|-----2---|
--|------------|-3----------|------------|-3---------3|---3---3---3|---3-----|
--|------------|------------|------------|------------|------------|---------|


----|------------|------------|------------|------------|------------|-------|
----|-----1------|-3---3-----3|-0-----0----|-1---1------|------------|-------|
-0--|---------0--|---------0--|-----0---0--|-----------0|-0-----0----|-2---2-|
----|-2----------|---0---0----|---0-------0|---2-----2--|-----2-----2|-3-----|
---3|---3---3---3|------------|------------|-3-----3----|---3-----3--|-3-3---|
----|------------|-3----------|-3----------|------------|------------|-------|


------|------------|------------|------------|------------|------------|-----|
------|-1---0------|------------|------------|------------|-1---0------|-----|
-----2|---------2--|-0---0-2-0--|---------0--|-2-----2-2--|---------2--|-0---|
---3--|---3---3----|-2-2--------|-2---0------|-3---3-----3|-----------3|---2-|
-3----|-----------3|-3---------3|---3---3---0|---3-----3--|---3---3----|-3---|
------|------------|------------|------------|------------|------------|-----|


--------|--------------|------------|-1----------|---------5-7|-8---10--12--|
--------|--------------|-3---3------|-----3---0--|-1-----5----|-10--12--13--|
-0-2-0--|-----0-------0|-------0-0--|-----------0|-2---2------|-------------|
--------|-0h2---2---2--|---0-------0|---0---0----|-2----------|-------------|
-------3|---------3----|------------|------------|-0-0--------|-------------|
--------|--------------|-3----------|------------|------------|-------------|


--8-------------|-----------|-0----------|------------|-0----------|---------|
-------8--------|-8---------|-----3---1--|------------|-----3---1--|---------|
-----9------9---|-----10---7|-------0----|-0---0-2-0--|-------0----|-0---0-2-|
--10-----10---10|-9-9----9--|---2-------2|---2-------2|---2-------2|---2-----|
----------------|-----------|-3----------|------------|-3----------|---------|
----------------|-----------|------------|------------|------------|---------|


----|-3---------------------------------------------------------------------|
----|-1---------------------------------------------------------------------|
-0--|-0---------------------------------------------------------------------|
---2|-2---------------------------------------------------------------------|
----|-3---------------------------------------------------------------------|
----|-----------------------------------------------------------------------|

Enjoy and happy holidays to all!!!
Suggest correction
comments
print report bad tab
5 comments total. Showing first comments.
0 reply
hamett91 63 Feb 24, 2007 11:17 PM

awesome. 5 stars.

0 reply
_SamuraI_ 10 Nov 03, 2007 05:23 PM

Soul Power I salute you.

0 reply
slowhand dom 10 Oct 26, 2008 07:48 PM

awesome tab, you rock dude, props

guest
You may want to rate the tab now too:
select rating
Wanna post a correction for this tab? Suggest correction