Oops, an error
Loading. Please wait.

Winter Palace tab

version 2
version 2

Whole song

223 views 1 this week
no commentswrite comment
1 2 3 4 5
3 more votes to show rating
add to favorites
×
Save as Personal and add changes to this tab that will be seen only by you. Learn more ›
×
You can save this tab as Personal to edit and correct it or add notes. All changes will be seen only by you. Learn more »
launch autoscroll
font size
0
reset
how to read this tab
guitar tuner
edit
Autoscroll
slow
fast
+/-
esc
set tempo
stop
Author
-------------------------------------------------------------------------------
                             Winter palace - Trans- Siberian orchestra
-------------------------------------------------------------------------------
Tabbed by: shredicus maximus
here is the CORRECT VERSION of winter palace. enjoy

Tuning: standard

e|----------------------------------------------------|
B|----------------------------------------------------|
G|------------------2------------------------2222222--|
D|-----------3------2---------9---7---3------2222222--|
A|----3------1------0---------9---7---3------0000000--|
E|----1-----------------------7---5---1---------------|

e|------------------------------|
B|------------------------------|
G|----3-------------------------|
D|----3-----4----------9----7---|
A|----1-----4----------9----7---|
E|----------2----------7----5---|

this part is very fast, all down picks. Good luck :)

|--------------------------------------------------------------|   you can either do this
B|-------------------------3-4-5-6-7--5-4-3--------------------|   a few times or you can
G|-------------------3-4-5------------------5-4-3--------------|  move up a half step and go with
D|-------------3-4-5------------------------------5-4-3--------|   the violins. dosen't matter witch
A|-------3-4-5------------------------------------------5-4-3--|
E|-------------------------------------------------------------|

e|-----------------------------------------------------------------------------------|
B|-----------------------------------------------------------------------------------|
G|--------2-------3------2--3--------------------------------------------------------|
D|--2-----2-------3------2--3-----5-----------9---------3----5-----------------------|
A|--2-----0-------1------0--1-----5-----------9---------3----5-----------------------|
E|--0-----------------------------3-----------7---------1----3-----------------------|


PM all chords

e|----------------------------------------------------|
B|----------------------------------------------------|  i don't know how many of
G|----------------------------------------------------|   these chords there are
D|---5-5-5-5-5-5-5-5-5-5-5-5-5-5-5-5-5-6-6-6-6-6-6-6--| but just listen to music
A|---5-5-5-5-5-5-5-5-5-5-5-5-5-5-5-5-5-6-6-6-6-6-6-6--| and you will figure it out
E|---3-3-3-3-3-3-3-3-3-3-3-3-3-3-3-3-3-4-4-4-4-4-4-4--|

e|------------------------------------------------------------------------------|
B|------------------------------------------------------------------------------|
G|------------------------------------------------------------------------------|
D|--6-6-6-6-6-6----5-5-5-5-5-5-5-5-5-5-5-5-5-5-5-5-5----------------------------|
A|--6-6-6-6-6-6----5-5-5-5-5-5-5-5-5-5-5-5-5-5-5-5-5----------------------------|
E|--4-4-4-4-4-4----3-3-3-3-3-3-3-3-3-3-3-3-3-3-3-3-3----------------------------|

e|-------------------------------------------------------------------------------|
B|-------------------------------------------------------------------------------|
G|-------------------------------------------------------------------------------|
D|--7-7-7-7-7-7-7-7-7-7-7-7-7-7-7---5-5-5-5-5-5-5-5-5-5-5-5-5-5------------------|
A|--7-7-7-7-7-7-7-7-7-7-7-7-7-7-7---5-5-5-5-5-5-5-5-5-5-5-5-5-5------------------|
E|--5-5-5-5-5-5-5-5-5-5-5-5-5-5-5---3-3-3-3-3-3-3-3-3-3-3-3-3-3------------------|

e|--------------------------------|
B|--------------------------------|
G|--------------------------------|  these repeat until violins
D|-6-6-6-6-6-6-6-6-6-6-6-6-6-6-6--| come in.
A|-6-6-6-6-6-6-6-6-6-6-6-6-6-6-6--|
E|-4-4-4-4-4-4-4-4-4-4-4-4-4-4-4--|

e|--------------------------------------------------|
B|--------------------------------------------------|
G|--------------------------------------------------|  (cue 1st violins)
D|-7-7-7-7-7-7-7-7-7-7-----8-8-8-8-8-8-8-8-8-8-8-8--|  each time the violins play,
A|-7-7-7-7-7-7-7-7-7-7-----8-8-8-8-8-8-8-8-8-8-8-8--|  switch chords
E|-5-5-5-5-5-5-5-5-5-5-----6-6-6-6-6-6-6-6-6-6-6-6--|
                                                                                  these two lines repeat
e|-------------------------------------------------------|   at until 2nd violins come
B|-------------------------------------------------------|   in
G|-------------------------------------------------------|
D|-9-9-9-9-9-9-9-9-9-9-9-9------10-10-10-10-10-10-10-10--|
A|-9-9-9-9-9-9-9-9-9-9-9-9------10-10-10-10-10-10-10-10--|
E|-7-7-7-7-7-7-7-7-7-7-7-7------8---8--8--8--8--8--8--8--|

e|----------------------------------------------------|
B|----------------------------------------------------|  cue 2nd violins
G|----------------------------------------------------|
D|---5-5-5-5-5-5-5-5-5-5-5-5-5-5-5-5-5-6-6-6-6-6-6-6--|
A|---5-5-5-5-5-5-5-5-5-5-5-5-5-5-5-5-5-6-6-6-6-6-6-6--|
E|---3-3-3-3-3-3-3-3-3-3-3-3-3-3-3-3-3-4-4-4-4-4-4-4--|

e|------------------------------------------------------------------------------|
B|------------------------------------------------------------------------------|
G|------------------------------------------------------------------------------|
D|--6-6-6-6-6-6----5-5-5-5-5-5-5-5-5-5-5-5-5-5-5-5-5----------------------------|
A|--6-6-6-6-6-6----5-5-5-5-5-5-5-5-5-5-5-5-5-5-5-5-5----------------------------|
E|--4-4-4-4-4-4----3-3-3-3-3-3-3-3-3-3-3-3-3-3-3-3-3----------------------------|

e|-------------------------------------------------------------------------------|
B|-------------------------------------------------------------------------------|
G|-------------------------------------------------------------------------------|
D|--7-7-7-7-7-7-7-7-7-7-7-7-7-7-7---5-5-5-5-5-5-5-5-5-5-5-5-5-5------------------|
A|--7-7-7-7-7-7-7-7-7-7-7-7-7-7-7---5-5-5-5-5-5-5-5-5-5-5-5-5-5------------------|
E|--5-5-5-5-5-5-5-5-5-5-5-5-5-5-5---3-3-3-3-3-3-3-3-3-3-3-3-3-3------------------|

e|------------------------------------------------------------------------------|
B|------------------------------------------------------------------------------|
G|------------------------------------------------------------------------------|
D|--6-6-6-6-6-6-6-6-6-6-6-6-----------------------------------------------------|
A|--6-6-6-6-6-6-6-6-6-6-6-6-----------------------------------------------------|
e|--4-4-4-4-4-4-4-4-4-4-4-4-----------------------------------------------------|

e|--------------------------------|
B|--------------------------------|
G|--------------------------------|
D|----12-12-12-12-12-12-12-12-12--|  cue 3rd violins
A|--------------------------------| his is pretty fast. alternate pick it. repeat until cool solo
e|--------------------------------|

e|-------------------------------------------------------------------------------------------------------|
B|-------------------------------------------------------------------------------------------------------|
G|-------12-13-14-12---13-14-16-13---14-16-17-14--16-18-19---17--15--15---12--12--10--10-7-10  this x 2--|
D|-------------------------------------------------------------------------------------------------------|
A|-------------------------------------------------------------------------------------------------------|
e|-------------------------------------------------------------------------------------------------------|

e|---------------------------------------------------------------------------------------------------|
B|-------12-13-14-12---13-14-14-13---14-16-17-14-16-18-19--17--15--15--12-12-10-10-7-10--- this x 2--|
G|---------------------------------------------------------------------------------------------------|
D|---------------------------------------------------------------------------------------------------|
A|---------------------------------------------------------------------------------------------------|
e|---------------------------------------------------------------------------------------------------|


slow down
e|---------------------------------|
B|---17-15--15-12------=  this x 3-|
G|---------------------------------|
D|---------------------------------|
A|---------------------------------|
e|---------------------------------|

hold each note
e|--------------------------------------------------------------------------------|
B|---9-------------5-----------------3--------------------------------------------|
G|-------------------------------------------------------2------------------------|
D|-------------------------------------------------------2------------------------|
A|-------------------------------------------------------0------------------------|
e|--------------------------------------------------------------------------------|

e|-------------------|
B|-------------------|
G|---3---------------|   down beat
D|---3---------------|
A|---1---------------|
e|-------------------|

enjoy

            
            
Suggest correction
Creating personal tab
Creating personal tab
You can edit any tab online and save it as your Personal.

You can edit, replace or remove any tab part or add personal notes – all changes will be seen only by you.

Personal tabs can be accessed anytime from any device, even offline.
Learn more »
Give kudos to tab author, rate the tab!
1 2 3 4 5
comments
print report bad tab
guest
You may want to rate the tab now too:
select rating
Wanna post a correction for this tab? Suggest correction