Oops, an error
Loading. Please wait.

Wizards In Winter bass

version 1
version 1

Whole song

Interactive

5,136 views 3 this week
2 commentsread comments
1 2 3 4 5
x 5
add to favorites
×
Save as Personal and add changes to this tab that will be seen only by you. Learn more ›
×
You can save this tab as Personal to edit and correct it or add notes. All changes will be seen only by you. Learn more »
launch autoscroll
font size
0
reset
guitar tuner
backing track
0:00
0:00
edit
Autoscroll
slow
fast
+/-
esc
set tempo
stop
Author
Difficulty
----------------------------------------------------------------------------
	         Wizards in Winter - Trans-Siberian Orchestra
----------------------------------------------------------------------------

Tabbed By : _godsmack_
e-mail: pearson1991@hotmail.com

Tuning: Standard

  Play x2
G|-----------|---------------|-4------4-----|----4--|----------------------|
D|-----------|----5-5----5-5-|---2-2----2-2-|--2----|-Piano [REST]---------|
A|-----2-----|--5------5-----|--------------|-------|----------------------|
E|-0-0---0-0-|---------------|--------------|-------|----------------------|

  Play x2
G|-------------|------------|--------------|---------------|
D|-------------|------------|--------------|-Piano [REST]--|
A|-------------|------------|------------2-|---------------|
E|--00--000--0-|-33--333--3-|-00--000--0---|---------------|


G|------------------------|
D|------------------------|
A|-2---2---22--22-0-------|
E|------------------3-2---|

 Play x2
G|-------------|------------|--------------|---------------|
D|-------------|------------|--------------|-Piano [REST]--|
A|-------------|------------|------------2-|---------------|
E|--00--000--0-|-33--333--3-|-00--000--0---|---------------|

G|--------------|---------------|
D|--------------|--Piano-[REST]-|
A|-2---2-22--22-|---------------|
E|--------------|---------------|

 Play x12
G||---------------||
D||.-------------.||
A||.-------------.||
E||---0000-0000---||

G|--------------------------|
D|--------------------------|
A|-2---2---2-22--22-0-------|
E|--------------------3-2---|

 Play x2
G|-------------|------------|--------------|---------------|
D|-------------|------------|--------------|-Piano [REST]--|
A|-------------|------------|------------2-|---------------|
E|--00--000--0-|-33--333--3-|-00--000--0---|---------------|

G|-----|-----|-------------------|
D|-----|-----|-More Piano [REST]-|
A|--2--|--2--|-------------------|
E|-----|-----|-------------------|

                   [x15]
G|----||-----------||-------------------------------|
D|----||.---------.||-------------------------------|
A|----||.---------.||--000-0-2---2---2-22--22-0-----|
E|-00-||--000-000--||---------------------------3-2-|



 Play x2
G|-------------|------------|--------------|---------------|
D|-------------|------------|--------------|-Piano [REST]--|
A|-------------|------------|------------2-|---------------|
E|--00--000--0-|-33--333--3-|-00--000--0---|---------------|

G|------------------------|
D|------------------------|
A|-2---2---2---2--0-------|
E|------------------3-2---|

                          [x3]          [x6]   [x4]     
G||-----------|-----------||------------||-----||---------------||----|----|
D||.----------|----------.||.----------.||.---.||.-------------.||----|----|
A||.----------|----------.||.--------0-.||.---.||.-2--2--2--2--.||----|--2-|
E||--00000000-|-33333333--||---0-2-3----||--0--||---------------||--0-|----|

                            ^^^^^^^^^^^
               First two times played slow, then fast



            
            
Suggest correction
Creating personal tab
Creating personal tab
You can edit any tab online and save it as your Personal.

You can edit, replace or remove any tab part or add personal notes – all changes will be seen only by you.

Personal tabs can be accessed anytime from any device, even offline.
Learn more »
comments
print report bad tab
2 comments total.
0 reply
bass_dude1649 10 Dec 05, 2007 04:07 PM

This is an awesome tablature. Period.

I love this tab. I play it every day for at least an hour, along with Christmas
Eve Sarajevo!

Great job, godsmack!

0 reply
StabilizedMeme 70 Jul 06, 2016 11:40 AM

nice one :) thanks

guest
You may want to rate the tab now too:
select rating
Wanna post a correction for this tab? Suggest correction