Oops, an error
Loading. Please wait.

Aquella Marioneta Tab

31 views 1 this week
no commentswrite comment
1 2 3 4 5
3 more votes to show rating
add to favorites
launch autoscroll
font size
0
reset
how to read this tab
guitar tuner
×
Best way to learn
"Aquella Marioneta"
Autoscroll
slow
fast
+/-
esc
set tempo
stop
C#  F#   A#  G#

e|----------------------------------------------------------------------|
B|----------------------------------------------------------------------|
G|--10h11p10------13b(15)(15)(15)-13-11-10-11-10-------10---------------|
D|-----------11----------------------------------11-13----13------------|
A|------------------------------------------------------------11-11~~---|
E|----------------------------------------------------------------------|


C#                      F#
Vuelve al salir el sol ,llego la madrugada
A#                      G#
Y otra vez me despierto,en medio del vacio
C#                 F#
Empapado en sudor, no alcanzo a comprender
A#                   G#
Porque tendre calor cuando hace tanto frio
C#              F#
Otra desilusion y otro fracaso
A#                  G#
La puña la traicion es la que me mato
C#                F#
Otra vez explicar lo que debia estar claro
A#                    G#
Otra vez mas me abraza la deseperacion

Estribillo:
----------

G|----------------------------------------|  La segunda guitarra
D|--8~~-11-10-6~~----11-10----------------|  durante la primera parte
A|-------------------------8~~---6-8-9~~--|  del estribillo
E|----------------------------------------|

A#                  G#
Quiero volver a ser aquella marioneta
F                         F#
Que se arranco los hilos y consiguio escapar
A#
Que vuela con los sueños
G#
Que rie igual que un niño
F                     F#
Pensando que ya nunca la van a manejar

A#                  G#
Para eso me hace falta que tu con tu mirada
F                         F#
Me alumbres el camino por donde voy a cruzar
A#                  G#
Y tambien necesito que me des tu alegria
F                     F#
Pa que sigua creyendo en la felicidad


G|--------------------------------------------------------------|
D|-10h11-11-11---11-10-11-10-------13b(15)-(15)-(15)-13-11-13~~-|
A|---------------------------11---------------------------------|
E|--------------------------------------------------------------|
  Y despues de esto otra vez el punteo de la intro

C#                    F#
Puede que sea la edad, pero me cuesta tanto
A#                    G#
cada vez que me caigo, volverme a levantar
C#                    F#
y escucho una canción, de esas que dicen algo
A#                    G#
buscando el equilibrio entre el sueño y realidad.
C#               F#
No vayas a variar como lo hicieron tantos
A#                        G#
cambiaron como el viento y van de aquí pa´ya
C#                F#
no vayas a olvidar todo lo que pasamos
A#                      G#
y que en nuestro billete ponía: ?hasta el final?.


ESTRIBILLO

G|---------------------------------------------------------------------|
D|-10h11-11-11--10-11-13-(15)-(13)-11---10-10h11-11h13--10-10h11p10----|
A|------------------------------------------------------------------11~|
E|---------------------------------------------------------------------|
  Y despues de esto otra vez el punteo de la intro

C#                      F#
Vuelve al salir el sol ,llego la madrugada
A#                      G#
Y otra vez me despierto,en medio del vacio


@Acordes by Warrior & Chukypunk          Punteos por Victor Suarez. ViKtoR xd dedicada a NâNah


                  Si no te aklaras kon algo,tienes dudas,sugerencias,krees ke esta mal
                        o simplemente te apeteze enviar un e-mail aki estoy

                                    

                  o visita la sekzion RockK ZOne de mi peich

                                    
                  ¡Hasta otra!
                                                            Warrior_
Suggest correction
Give kudos to tab author, rate the tab!
1 2 3 4 5
comments
print report bad tab
guest
You may want to rate the tab now too:
select rating
Wanna post a correction for this tab? Suggest correction