Oops, an error
Loading. Please wait.

La Buena Cara Tab

13 views 1 this week
no commentswrite comment
1 2 3 4 5
3 more votes to show rating
add to favorites
launch autoscroll
font size
0
reset
how to read this tab
guitar tuner
×
Best way to learn
"La Buena Cara"
Autoscroll
slow
fast
+/-
esc
set tempo
stop
weno ay muxas cosas sacadas de transfer
pero ya que este punteo del principio
de la cancion la buena cara no estaba pos me lo sako
y lo pongo con la cancion tambien

weno puede ke parezca al principio
rayante (no he puesto los tempos soi muy vago)
pero es muy senzillo,
si lo tokais con la cancion puesta es pan comido

(x) bending
(^) slide
< o > trina o ligado
(x2)haz el bending repetidamente


punteo de fede

           [3 veces]
   LA#   SOL#  FA#                      FA  FA# SOL#
e|----------------------------|-----------------------------|
b|-------9--------------------|-----------------------------|
g|--8(x)-----8(x)---6-------6-|-------5---6---8-------------|[todoestox2]
d|----------------------8-----|-----------------------------|
a|----------------------------|-----------------------------|
E|----------------------------|-----------------------------|


punteo de victor

  LA#               FA#                                SOL#
e|-------------------6---------------------------------------------------|
b|-6----------------------9--6-------9---------------------------11------|
g|-8(x)--8--6--8-----------------8(x)---8(x)--6---8----6(^)10---------13-|
d|-----------------------------------------------------------------------|
a|-----------------------------------------------------------------------|
E|-----------------------------------------------------------------------|

                               FA                                LA#
e|----------------------------------------------------------------9------|
b|-------------------------11-----------14-----------------------11(x)---|
g|-10>11<10--------6(^)10-------13(x)----------13(x)---11---13-----------|
d|-----------11----------------------------------------------------------|
a|-----------------------------------------------------------------------|
E|-----------------------------------------------------------------------|

                      FA#           SOL#
e|--------------------15(x2)---------------------------------------------|
b|-11---9---11---9---------------12>13<12-----------12>13<12-------------|
g|-------------------------------------------14------------------12------|
d|-----------------------------------------------------------------------|
a|-----------------------------------------------------------------------|
E|-----------------------------------------------------------------------|

                      ... FA
e|------------------|
b|--12>13<12---13---|
g|------------------|
d|------------------|
a|------------------|
E|------------------|

(weno el final(yastaba cansao XD) no me lo he sakao
pero weno seran 4 o 5 notas estrujaos las
neuronas y sakaroslo vosotros :D)


LA#                      FA#                    SOL#
Y antes de que salga el sol ya esta haciendo desayunos tres
            FA
hijos ke mantener
                        LA#
y ni un te kiero de ninguno,
LA#                 FA#                     SOL#
un marido alkoholizao repartiendo malas ostias si hubo un
            FA
recuerdo bonito se
                     LA#
ha perdido en la memoria.
LA#                 FA#                     SOL#
Toda la vida currando harta de fregar mil suelos ke webos tiene
    FA
la vida no va y te
         FA#          SOL#
llamas consuelo   consueeeeeloooo

[estribillo]

C#                     G#                 F#
Pero sigue creyendo en ti, por eso cada mañana
                 C#                    G#
Justo antes de salir se pone la buena cara
                  F#                      C#
Y las ganas de reír, pa que no la vean llorar
                      G#
Aunque no será por ganas
F#                       C#
De ver que siempre es igual
                      G#   F# C# G#
Lucha y no consigue nada

A# G# F#   A# G# F#   A# G# F#   F F# G#

[estrofa]

LA#         FA#                 SOL#
Ella tiene 23 y una niña de seis años y un vicio
    FA                           LA#
ke mantener ese ke ha matado a tantos
LA#                 FA#                   SOL#
cuando consuelo se acuesta ella sale a trabajar va venderle
       FA                         LA#
una sonrisa al postor ke apueste mas
LA#                FA#                        SOL#
Perseguida por el SIDA con el miedo siempre enmedio tiene webos
    FA
la vida no va y se llama
FA#                      SOL#
remedios         remeeeeeeeeeeeediooooooos

[estribillo]

[estrofa]
LA#                    FA#                    SOL#
Y aun no a terminao remedios y empeze yo a trabajar para
              FA                        LA#
conseguir un sueño voi perdiendo la libertad.
LA#                    FA#                   SOL#
Por cantarte unas canciones al diablo to le vendo,
       FA                                   LA#
Me alimento de ilusiones y es lo uniko ke tengo.
LA#                   FA#                    SOL#
Pero a mi como a consuelo y remedios aun me pasa ke sigo
            FA
creyendo en ti ke te llamas
   FA#                   SOL#
esperanza       esperaaaaaaaaaaaanzaaaaa

[estribillo]

[estribillo]


Quiero agradecer Aris y Transfer por componer
esta canción porke a sido la kanción ke
me a metido en esta mundillo y gracias a
ella e pasao ratos estupendos con gente ke kiero.

Asi ke esto se lo dedico al Isra por ke
kon esta cancion pasamos un verano de puta madre y
a Barbara[mi moko(L)] porke kuando estaba
sonando en alcacer me enamore.

y weno ke si esta mal alguna cosa de la
cancion o no entendeis algo de los punteos(ke fijo ke ay algo xD)
pos na me lo decis por msn
agur!!

paranoid_txetxu666@
Suggest correction
Give kudos to tab author, rate the tab!
1 2 3 4 5
comments
print report bad tab
guest
You may want to rate the tab now too:
select rating
Wanna post a correction for this tab? Suggest correction