Oops, an error
Loading. Please wait.

Okupa Y Resiste Tab

28 views 1 this week
no commentswrite comment
1 2 3 4 5
3 more votes to show rating
add to favorites
×
Save as Personal and add changes to this tab that will be seen only by you. Learn more ›
×
You can save this tab as Personal to edit and correct it or add notes. All changes will be seen only by you. Learn more »
save as personal
new!
launch autoscroll
font size
0
reset
how to read this tab
guitar tuner
Autoscroll
slow
fast
+/-
esc
set tempo
stop
TRANSFER-OKUPA Y RESISTE
@Tab by Warrior


-------------------------

Intro
-----
G
E|----------------------------------------------------------------------------------------------------------------|
B|----------------------------------------------------------------------------------------------------------------|
G|----------------------------9-12-11-12-14-12-11-12--11-12-14-16--------------------------9-12-11-12-14-12-11-12-|
D|-----5-7-9-10-9-7-5--7-9-10----------------------------------------5-7-9-10-9-7-5-7-9-10------------------------|
A|----------------------------------------------------------------------------------------------------------------|
E|----------------------------------------------------------------------------------------------------------------|


E|---------------------------------------|
B|---------------------------------------|
G|--12-12-11-11-9-9-7-7-5-5-4-4-2-2------|
D|----------------------------------5----|
A|---------------------------------------|
E|---------------------------------------|

Estrofa
-------
C E6 A G Lick 1
Mirala bien,esta abAndona y ahora mirame a mi no tengo donde ir
Busco sin parar un sitio trankilo pa descansar y vivir en paz
C G A E6
Ya me canse de malvivir quiero mi sitio donde dormir
C G A G
de hoy no pasa lo he de conseguir


Estribillo:
----------
A G C lick 2
Hemos vuelto a okupar
hemos vuelto a okupar


LICK 1:
------

E|---------|
B|-5-2p3---|
G|-------5-|
D|---------|
A|---------|
E|---------|

lick 2:
------

E|-------------|
B|-------------|
G|-------------|
D|-2-2-3-2-----|
A|---------5-3-|
E|-------------|


Si no te aklaras kon algo,tienes dudas,sugerencias,krees ke esta mal
o simplemente te apeteze enviar un e-mail aki estoy



o visita la sekzion RockK ZOne de mi peich


¡Hasta otra!
Warrior_
Suggest correction
Give kudos to tab author, rate the tab!
1 2 3 4 5
comments
print report bad tab
guest
Wanna post a correction for this tab? Suggest correction