Oops, an error
Loading. Please wait.

Otro Sabor Tab

2 views 1 this week
no commentswrite comment
1 2 3 4 5
3 more votes to show rating
add to favorites
launch autoscroll
font size
0
reset
how to read this tab
guitar tuner
×
Best way to learn
"Otro Sabor"
Autoscroll
slow
fast
+/-
esc
set tempo
stop
esto es una corrección de la otra partitura que tiene algunos acordes mal
aparte está el solo del principio o algo parecido

SI (arpegiado)      LA            SI
e|-----------12----------------------|
B|-12--14-15----15-14h15p14-12p10h12-|

SI                        LA
e|-----------------------------------------------------------|
B|--10-12-10----10-------------------------------------------|
G|-----------12----12-11-12-11-9-11-9----9-------------------|
D|------------------------------------12---12-11-12-11-9-7---|

              RE                  FA#       SOL
e|------------------------------------------------------------|
B|--------------10---8---7---5------------------787-87-87-87--|
G|-----6-7-9-7-----7---7---7---7-6--7-6------679---9--9--9--9-|
D|-7-9----------------------------------9-7-9-----------------|

SOL                        LA
e|---------------7-9-10-12---10-9h10p9-75---------------------|
B|-87--87--78-10-------------------------875------------------|
G|---9---9----------------------------------76------6-7-6-----|
D|--------------------------------------------9-7-9-------7-9-|
La escala descencente, en realidad va entre cada nota un trino, pero es demasiado rápido.

SI            LA      SI              LA
Hoy eché un vistazo atrás y busqué por el pasado;
RE            FA#      SOL            LA
parecía que aún fue ayer, pero cuánto tiempo ha pasado.

      [LA-DO#-RE-DO#-LA-SI]                  [LA-SI-DO#-RE-MI-RE]
Y hace varios años ya, creo que bastantes más de cuatro,
nos íbamos a ensayar, unos críos ilusionados.
Y aún me acuerdo de aquella canción, cuántas veces la habré tocado,
y me emociono al mirar fotos nuestras del pasado.
Quise hacer una canción a aquellos con los que he empezado,
porque me costó aguantar sin tenerlos a mi lado.

DO            SOL  FA                 SOL
Todo tenía otro sabor y ,al final, hasta he llorado
escribiendo esta canción, que muy de dentro la he sacado.
Son notas del corazón y aunque suene algo extraño,
lo pasado ya pasó, pero jamás podré olvidaros.
(rápido)
Mi guitarra se mojó con lágrimas de mi corazón oxidado;
aguanté y me las bebí y fue el trago más amargo
            DO      SOL FA SOL
que en mi vida nunca di.

DO SOL FA SOL  x3            DO
Suggest correction
Give kudos to tab author, rate the tab!
1 2 3 4 5
comments
print report bad tab
guest
You may want to rate the tab now too:
select rating
Wanna post a correction for this tab? Suggest correction