Oops, an error
Loading. Please wait.

Soberbia Tab

10 views 1 this week
no commentswrite comment
1 2 3 4 5
3 more votes to show rating
add to favorites
launch autoscroll
font size
0
reset
how to read this tab
guitar tuner
Autoscroll
slow
fast
+/-
esc
set tempo
stop
Help us to improve Ultimate-Guitar.com Take our survey!
×
@Tab by Warrior


                              TRANSFER: Soberbia
                                       -------------------

Ahi va otro temazo de los Transfer del disko la gran mentira.
Dedikao pal Javi_Thalion k la pidio en el foro
 la tienes, a  y wen rockk!!


Intro (Cada guitarra toka kada punteo a la vez)
-----
                 B B             G G             A A           D A

E||--5---------------5---------------5---------------------------||
B||----8-7-5-----7-7---8-7-5-----------8-7-5---------------7-5---||
G||----------7-6-------------7-6-4-4---------7-6-6-6-7-6-4-----7-||
D||--------------------------------------------------------------||
A||--------------------------------------------------------------||
E||--------------------------------------------------------------||

E||--------------------------------------------------------------||
B||--------------------------------------------------------------||
G||--------------------------------------------------------------||
D||--4-2-------------4-2-------------4-2-------------------4-2---||
A||------5-4-2---2-2-----5-4-2-----------5-4-2-------5-4-2-----5-||
E||------------5---------------5-3-3-----------5-5-5-------------||

Estrofa
-------
B              G          A            D A
Tu siempre en todo has de ser el mejor
   B               G            A      D A
ser el que esta arriba, el que manda
B       G      A       D  A
manejar todo a tu voluntad
  B          G           A     D  A
y cuantas cosas se te escapan.
     F#                D                  B                    C#
No escuchas a nadie todo te da igual tu orgullo siempre por delante
F#                  D              B                 C#
solo te mueves por comodidad pero bien que sabes quejarte.

Estribillo:
----------
F#                   A      F#                      E(Lick 1)
No te das cuenta que pierdes por las noches el control
F#                  D   A                           E(Lick 1)
que la soberbia te puede y que tu nunca fuiste un dios


Lick 1:
------
E|--------------------------|
B|--------------------------|
G|--------------------------|
D|-2-----------2-----------2|
A|-2-----------2-----------2|
E|-0-2-0-4-0-2-0-2-0-4-0-2-0|


Si no te aklaras kon algo,tienes dudas,sugerencias,krees ke esta mal
o simplemente te apeteze enviar un e-mail aki estoy

            

o visita la sekzion RockK ZOne de mi peich

            
¡Hasta otra!
                                                            Warrior_
Suggest correction
Give kudos to tab author, rate the tab!
1 2 3 4 5
comments
print report bad tab
guest
You may want to rate the tab now too:
select rating
Wanna post a correction for this tab? Suggest correction