Oops, an error
Loading. Please wait.

Vale La Pena Tab

22 views 3 this week
no commentswrite comment
1 2 3 4 5
3 more votes to show rating
add to favorites
launch autoscroll
font size
0
reset
how to read this tab
guitar tuner
×
Best way to learn
"Vale La Pena"
Autoscroll
slow
fast
+/-
esc
set tempo
stop
SI       FA#        SOL#      MI    FA#
---------------------------------------------------------------
----7-5-4----7-5-4h5p4--7-5-4----------------------------------
-4--------6-------------------6-4-3-----3-4--------------------
------------------------------------4-6------------------------
---------------------------------------------------------------
---------------------------------------------------------------

SI       FA#        SOL#      MI    FA#            SI
--------------------------------------4b4b4-2------------------
----7-5-4----7-5-4h5p4----------4-5-7---------4----------------
-4--------6-------------------6--------------------------------
---------------------------------------------------------------
---------------------------------------------------------------
---------------------------------------------------------------

_____________________________________________________
Guitarra I
 DO#        SI        LA       SI
------------------------------------------
------5---------4--------2--------4-------
--------6---------4--------2-------4------
----6---------4--------2--------4---------
--4---------2--------0--------2-----------
------------------------------------------
Guitarra II
------------------------------------------
--------------------------------4-5-4-----
----------------------------4-6-------6---
------------------------------------------
------------------------------------------
------------------------------------------
Y aunque no es como pensaba...

Guitarra I
 DO#        SI        LA       SI
------------------------------------------
------5---------4--------2--------4-------
--------6---------4--------2-------4------
----6---------4--------2--------4---------
--4---------2--------0--------2-----------
------------------------------------------
Guitarra II
--------------------------------------4-4-
--------------------------------4-5-7-----
------------------------------------------
------------------------------------------
------------------------------------------
------------------------------------------
ni esto yo es lo que yo soñé...

Guitarra I
 DO#        SI        LA       SI
------------------------------------------
------5---------4--------2--------4-------
--------6---------4--------2-------4------
----6---------4--------2--------4---------
--4---------2--------0--------2-----------
------------------------------------------
Guitarra II
--------------------------------4-7-9-7-9-
------------------------------------------
------------------------------------------
------------------------------------------
------------------------------------------
------------------------------------------
aún así valió la pena...

Guitarra I
 DO#        SI        LA       SI
------------------------------------------
------5---------4--------2--------4-------
--------6---------4--------2-------4------
----6---------4--------2--------4---------
--4---------2--------0--------2-----------
------------------------------------------

Guitarra II
E--9largo-

pues te he llegado a conocer...

___________
si alguien quiere el punteado que hay en
la estrofa super rápido, sé que notas son,
pero es bastante imposible de tocarlo.
si queréis saberlo: mail a ferhuego@
___________
Suggest correction
Give kudos to tab author, rate the tab!
1 2 3 4 5
comments
print report bad tab
guest
You may want to rate the tab now too:
select rating
Wanna post a correction for this tab? Suggest correction