Oops, an error
Loading. Please wait.

Indoor Voices Tab

6,537 views 6 this week
no commentswrite comment
1 2 3 4 5
excellent!
x 4
add to favorites
launch autoscroll
font size
0
reset
how to read this tab
guitar tuner
Tab Pro tools
  • play this tab
  • loop segment
  • change instrument
  • show fretboard
  • metronome
×
Best way to learn
"Indoor Voices"
Autoscroll
slow
fast
+/-
esc
set tempo
stop
Difficulty
Tuning
advanced
D G C F A D
Transit- Indoor Voices
Tuning: D A D F♯ A d

questions: e-mail: brianhaggerty09@gmail.com

listen for timing/number of times each riff is played.
it's a relatively repetitive song, so it won't be too difficult to catch on.

intro/chorus riff

d--|---------------------------------------------|
A--|-------0---------0--------4p0--4-5-7p0-----0-|
F#-|----------------------3/5--------------5/7---|
D--|---2---------2-------------------------------|
A--|-5---5-----5---5----2---------7--------------|
D--|---------------------------------------------|

d--|------------------------2-4------------------|
A--|-------0---------0---------------------0-----|
F#-|----------------------3---------5-5-7--------|
D--|---2---------2------4------------------------|
A--|-5---5-----5---5------------5/7--------------|
D--|---------------------------------------------|

verse riff

d--|---------------------------------------------|
A--|-------0---------0---------0---------0-------|
F#-|---------------------------------------------|
D--|---2---------2--------2---------2------------|
A--|-5---5-----5---5----2---2-----2---2----------|
D--|---------------------------------------------|

d--|------------------------2-4------------------|
A--|-------0---------0---------------------0-----|
F#-|-0---0-----0---0------3---------5-5-7--------|
D--|---2---------2------4------------------------|
A--|----------------------------5/7--------------|
D--|---------------------------------------------|

bridge riff

I can't make out the entire bridge riff, I know it includes this though

d--|---------2-4------------------|
A--|-----------------------0------|
F#-|-----3-----------5-5-7--------|
D--|---4--------------------------|
A--|-------------5/7--------------|
D--|------------------------------|

possibly this?

d--|-------------------------------|
A--|-------------------------------|
F#-|-(3)-(3)-(3)-(3)---------------|
D--|--2-2-2-2-2-2-2-2--------------|
A--|--5-5-4-4-2-2-0-0--------------|
D--|-------------------------------|


^^^ that is most likely what is played before it goes into the heavier chord progression 
which is this:


d--|-(0)-|-(0)-|--0--|--0--|--0--|
A--|-(0)-|-(0)-|--0--|--0--|--0--|
F#-|-(3)-|-(3)-|--0--|--0--|--0--|
D--|--2--|--2--|--2--|--7--|--4--|
A--|--5--|--2--|-----|--9--|--5--|
D--|--0--|--0--|-----|-----|-----|


enjoy.
comments
print report bad tab
I want to post or [tab]
guest
You may want to rate the tab now too:
select rating
Please do not post tabs as comments. Select "correction" instead!