Oops, an error
Loading. Please wait.

Outbound Tab

version 1
version 1

Whole song

5,979 views 3 this week
2 commentsread comments
1 2 3 4 5
please rate
add to favorites
launch autoscroll
font size
0
reset
how to read this tab
guitar tuner
Autoscroll
slow
fast
+/-
esc
set tempo
stop
Help us to improve Ultimate-Guitar.com Take our survey!
×
Contributor
Difficulty
Tuning
novice
D A D F# A D
----------------------------------------------------------
  OUTBOUND - Transit (http://www.myspace.com/transitma)
----------------------------------------------------------
Tabbed by: Dylan Kappler
Email: empirebillboard@gmail.com

Tuning:  Open D - D A D F# A d

Pretty simple song, just figure out the rhythms. Transit knows how to do work.

OPENING RIFF x2

D |-11h12p11-----14-------11h12p11-----|
A |----------12-----12-------------12--|
F#|------------10-----10---------------|
D |------------------------------------|
A |------------------------------------|
D |------------------------------------|

MAIN CHORD PROGRESSION

D |------------------------------|
A |------------------------------|
F#|-----7------10----10---10-----|
D |-----4------0-----7----7------|
A |-----4------0-----7----7------|
D |-----4------0-----7----9------|

FILL

D |------------------------|
A |------------------------|
F#|------------------------|
D |----------7--9p7---7----|
A |--------7--------9------|
D |----7h9-----------------|

AS THE WORLD FLIES BY @ 1:05

D |---14---14---14-------|
A |---12---12---12-------|
F#|---xx---xx---xx-------|
D |---14---14---14-------|
A |---12---xx---xx-------|
D |--------12---11-------|

WHEN COMPASSION IS DEAD...
D |-------2----------2------------7-------------7----|----------7-----------|
A |-----0---0------0---0-------0-----0-------0-----0-|-----0-------0---0----|
F#|--------------------------------------------------|---0---0-------0----x2|
D |--------------------------------------------------|----------------------|
A |-------------0------------------------4-----------|-5--------------------|
D |---4---------------------6------------------------|----------------------|

SOME SAY THAT HATE... @ 1:34
Same notes as the chord progression above, just strum how they do in the song, palm 
the bass note.

SOME SAY THAT HATE... @ 1:48

D |------------------------------|
A |------------------------------|
F#|-----7------10----10---10-----|
D |-----4------0-----7----7------|
A |-----4------0-----7----7------|
D |-----4------0-----7----9------|

@2:16

D |---14---14---14-------|
A |---12---12---12-------|
F#|---xx---xx---xx-------|
D |---14---14---14-------|
A |---12---xx---xx-------|
D |--------12---11-------|

AS THE WORLD FLIES BY @ 2:31

D |------------------------------|
A |------------------------------|
F#|-----7------10----10---10-----|
D |-----4------0-----7----7------|
A |-----4------0-----7----7------|
D |-----4------0-----7----9------|


I left this pretty vague so you can kind of fill in parts how you see fit, you can throw 
fills in whenever and it sounds good.  Enjoy!

************************************

| /   slide up
| \   slide down
| h   hammer-on
| p   pull-off
| ~   vibrato
| +   harmonic
| x   Mute note
| b   Bend
| pb  Pre-bend
| br  Bend release
| pbr Pre-bend release
| brb Bend release bend

************************************
comments
We did not receive enough feedback on this tab! Please rate:
print report bad tab
1 2 3 4 5
2 comments total.
0 reply
Co&Ca11 113 wrote on September 25 2010, 01:03 am

This is pretty damn good! Does Transit always play in Open D? Because I've learned parts of "For the World" and "Cast Away" but a lot of their songs sound like they use some pretty odd chords.

0 reply
triggerhappy19 1,223 wrote on September 28 2010, 04:35 am

I'm not sure if they even play in Open D or not, I just figured it out in that tuning and it was easier to play.

I want to post or [tab]
guest
You may want to rate the tab now too:
select rating
Please do not post tabs as comments. Select "correction" instead!