Oops, an error
Loading. Please wait.

Outbound Tab

version 2
version 2

Whole song

9,839 views 9 this week
1 commentread comment
1 2 3 4 5
excellent!
x 4
add to favorites
launch autoscroll
font size
0
reset
how to read this tab
guitar tuner
Autoscroll
slow
fast
+/-
esc
set tempo
stop
Help us to improve Ultimate-Guitar.com Take our survey!
×
Difficulty
Capo
novice
2nd fret
Capo 2

intro:
e--7h8p7-----10-----7h8p7---|-7h8p7-----10-----7h8p7-------|
B--------8------8---------8-|-------8------8---------8-----|
G----------7------7---------|---------7------7-------------|
D---------------------------|------------------------------|
A---------------------------|------------------------------|
E---------------------------|------------------------------|

Listen for the strumming
verse:
e---3---|--3---|--3---|-------------------|
B---3---|--3---|--3---|------3-----3---3--|
G---0---|--0---|--0---|------0-----0---0--|
D---2---|--2---|--0---|-------------------|
A---2---|--3---|--2---|--------0h2---0----|
E---0---|------|--3---|--2h3--------------|


e---3---|--3---|--3---|------------------|
B---3---|--3---|--3---|------------------|
G---0---|--0---|--0---|-------0-2p0---0--|
D---2---|--2---|--0---|-----0-------2----|
A---2---|--3---|--2---|-0h2--------------|
E---0---|------|--3---|------------------|


e---3---|--3---|--3---|-------------------|
B---3---|--3---|--3---|------3-----3---3--|
G---0---|--0---|--0---|------0-----0---0--|
D---2---|--2---|--0---|-------------------|
A---2---|--3---|--2---|--------0h2---0----|
E---0---|------|--3---|--2h3--------------|


e---3---|--3---|--3---|-3--x-x-x-|
B---3---|--3---|--3---|-3--x-x-x-|
G---0---|--0---|--0---|-0--x-x-x-|
D---2---|--2---|--0---|-0--x-x-x-|
A---2---|--3---|--2---|-2--x-x-x-|
E---0---|------|--3---|-3--x-x-x-|

pre-chorus?:
e---3---|--3---|--3---|------------------|
B---3---|--3---|--3---|------------------|
G---0---|--0---|--0---|-------0-2p0---0--|
D---2---|--2---|--0---|-----0-------2----|
A---2---|--3---|--2---|-0h2--------------|
E---0---|------|--3---|------------------|

e---3---|--3---|--3---|--3-3-3-3---------|
B---3---|--3---|--3---|--3-3-3-3---------|
G---0---|--0---|--0---|--0-0-0-0---0-----|
D---2---|--2---|--0---|--2-2-2-2-4---4-0-|
A---2---|--3---|--2---|--0-0-0-0---------|
E---0---|------|--3---|------------------|

e---3---|--3---|--3---|------------------|
B---3---|--3---|--3---|------------------|
G---0---|--0---|--0---|-------0-2p0---0--|
D---2---|--2---|--0---|-----0-------2----|
A---2---|--3---|--2---|-0h2--------------|
E---0---|------|--3---|------------------|

e---3---|--3---|--3---|-3-|
B---3---|--3---|--3---|-3-|
G---0---|--0---|--0---|-0-|
D---2---|--2---|--0---|-0-|
A---2---|--3---|--2---|-2-|
E---0---|------|--3---|-3-|

Chorus:

e---------10-----10--8--8--|---------10-----10--8--8--|--3---|--3---|
B---0--0--0-------0--0--0--|---0--0--0-------0--0--0--|--3---|--3---|
G---0--0--0---0---0--0--0--|---0--0--0---0---0--0--0--|--0---|--0---|
D---9--9--9---9---9--9--9--|---9--9--9---9---9--9--9--|--2---|--0---|  x2
A--10--10-10--10-10--10-10-|--10--10-10--10-10--10-10-|--3---|--2---|
E--------------------------|--------------------------|------|--3---|

bridge:
e------------------|------------------|--------3--------|--------3--------|
B------3-------3---|-----3--------3---|----3-------3----|----3-------3----|
G----0---0---0---0-|---0---0----0---0-|--0---0---0---0--|--0---0---0---0--|
D------------------|------------------|-----------------|-----------------|
A------------------|----------2-------|-3---------------|-3---------------|
E--0-------3-------|-2----------------|-----------------|-----------------|

e------------------|------------------|-3---|
B------3-------3---|-----3--------3---|-3---|
G----0---0---0---0-|---0---0----0---0-|-0---|
D------------------|------------------|-2---|
A------------------|----------2-------|-3---|
E--0-------3-------|-2----------------|-----|

e------------------|-3---|-3----|
B--3---3-|-3---3---|-3---|-3----|
G--0---0-|-0---0---|-0---|-0----|
D--2---0-|-0---x---|-2---|-2----| 
A--2---x-|-x---2---|-3---|-3----| 
E--0---3-|-2-------|-----|------|


e------------------|-3---|-----------------|
B--3---3-|-3---3---|-3---|-------------0---|
G--0---0-|-0---0---|-0---|-------2p0-----0-|
D--2---0-|-0---x---|-2---|-----0-----0-----|
A--2---x-|-x---2---|-3---|-2h3-------------|
E--0---3-|-2-------|-----|-----------------|

(Pre-Chorus)

(Chorus)
this last chorus rings out on the last 2 chords before entering the full band electric part.


Outro:
Same chords as the verse/chorus strummed in 8th notes.



I think I got it all, hope this helps.
Suggest correction What's this?
You can suggest a correction to this tab. Community and Mods will review your correction and vote to approve or reject it.
comments
print report bad tab
1 comment total.
0 reply
JoshDropD 516 wrote on June 1 2011, 05:24 pm

This tab is absolutely wonderful. It's accurate, easy to follow and is much better than version 1 (I didn't like changing the tuning when I played the song) Anyways, who ever this is, keep making tabs and make more Transit tabs!

...please.

I want to post or [tab]
guest
You may want to rate the tab now too:
select rating
Please do not post tabs as comments. Select "correction" instead!