Oops, an error
Loading. Please wait.

Skipping Stone Chords

version 1
version 1

Whole song

11,497 views 12 this week
no commentswrite comment
1 2 3 4 5
accurate
x 4
add to favorites
launch autoscroll
font size
0
reset
transpose
0
reset
simplify chords
display chords
guitar tuner
Autoscroll
slow
fast
+/-
esc
set tempo
stop
Help us to improve Ultimate-Guitar.com Take our survey!
×
Author
Capo
Artist: Transit
Album: Listen and Forgive
Track: Skipping Stone
Tuning: Standard (EADGBe), capo 2

Chords used (in relation to capo)
  F#5 G#5 A#5 C#5
E|-----------------|
B|-----------------|
G|-------------4---|
D|-2---4---6---4---|
A|-2---4---6---2---|
E|-0---2---4-------|

A#5  F#5           C#5  G#5         A#5  F#5   C#5  G#5
     I'm getting good at saying goodbye,
           A#5  F#5   C#5  G#5       A#5  F#5 
But I've always been better at believing
     C#5     G#5
That you're better off
 
F#5 F#5     G#5  A#5
   Wherever you go
F#5 F#5     G#5  A#5
     Go with all your heart
F#5 F#5   G#5 
    Worn out
    A#5    F#5 F#5   G#5  A#5
And broken in like hand-me downs
F#5   A#5
  And every memory
   G#5             C#5
Is like a skipping stone
                  F#5
You'll never understand
            A#5
How long it took the tides
      C#5 
To bring them back to us
 
A#5  F#5    C#5  G#5     A#5  F#5     C#5  G#5

A#5  F#5           C#5  G#5         A#5  F#5   C#5  G#5
     I'm getting good at saying goodbye, saying goodbye

F#5 F#5     G#5  A#5
   Wherever you go
F#5 F#5     G#5  A#5
     Go with all your heart
F#5 F#5   G#5 
    Worn out
    A#5    F#5 F#5   G#5  A#5
And broken in like hand-me downs
F#5   A#5
  And every memory
   G#5             C#5
Is like a skipping stone
                  F#5
You'll never understand
            A#5
How long it took the tides
      C#5                  F#5
To bring them back to us
   A#5    G#5
And we grow
C#5                     F#5
Into those sadder songs
    A#5       C#5
And leave our love behind in every single line

(in relation to capo)
E|--------------------------------|--------------------------------|---|
B|--------------------------------|--------------------------------|---|
G|--------------------------------|--------------------------------|---|
D|--------------------------------|--------------------------------|---|
A|-----4-/-6-----------6---9------|-----4-/-6-----------6---9------|---|
E|-0-----------7---0-----------7--|-0-----------7---0-----------7--|-4-|

G#5               A#5 
Maybe that's the only place it can really live

E|--------------------------------|--------------------------------|---|
B|--------------------------------|--------------------------------|---|
G|--------------------------------|--------------------------------|---|
D|--------------------------------|--------------------------------|---|
A|-----4-/-6-----------6---9------|-----4-/-6-----------6---9------|---|
E|-0-----------7---0-----------7--|-0-----------7---0-----------7--|-4-|

G#5            A#5              F#5
But you could never understand 
                            G#5
You don't care, you don't care
          A#5             F#5
You would never understand
                           G#5    A#5
You don't care, you don't care

F#5 F#5     G#5  A#5
   Wherever you go
F#5 F#5     G#5  A#5
   Wherever you go
F#5 F#5 G#5 A#5 F#5 F#5 G#5 A#5 
   Wherever you go__________

F#5   A#5
  And every memory
   G#5             C#5
Is like a skipping stone
                  F#5
You'll never understand
            A#5
How long it took the tides
      C#5                  F#5
To bring them back to us
   A#5    G#5
And we grow
C#5                     F#5
Into those sadder songs
    A#5       C#5
And leave our love behind in every single line

 
A#5  F#5           C#5  G#5         A#5  F#5   C#5  G#5
     I'm getting good at saying goodbye, saying goodbye
Suggest correction
comments
print report bad tab
guest
You may want to rate the tab now too:
select rating
Wanna post a correction for this tab? Suggest correction