Oops, an error
Loading. Please wait.

The Only One Bass Tab

28 views 3 this week
no commentswrite comment
1 2 3 4 5
3 more votes to show rating
add to favorites
launch autoscroll
font size
0
reset
guitar tuner
Autoscroll
slow
fast
+/-
esc
set tempo
stop
Help us to improve Ultimate-Guitar.com Take our survey!
×
Author
Difficulty
About this tab version
There is no other Bass Tab for this song on here and This tab is pretty spot on. Was this info helpful? Yes No
This is my first Tab, I think i got most of it correct,
But if i didn't feel free to fix my wrong's in the comments,
There might be some missing pauses and stops but this song is
so simple that you can fill in the blanks yourself

Intro
G|-------------------------------------------------|
D|-------------------------------------------------| x2
A|-------------------------------------------------|
E|-1-1-1-1---1-1-1-1---4-4-4-4---5-5-5---5-5-5-5---| 

Verse #1
G|-------------------------------------------------|    
D|-------------------------------------------------| x4 
A|-------------------------------------------------|
E|-1-1-1-1---1-1-1-1---4-4-4-4---5-5-5---7-7-7-7---|

Chorus
G|-------------------------------------------------------------------------------------|
D|-------------------------------------------------------------------------------------| x2
A|-6-6-6-6-6-6-6-6-6-6-6---------------------------------------------------------------|
E|-------------------------4-4-4-4-4-4-4-4-4-4-4---7-7-7-7-7---6-6-6-6-6---4-4-4-4-4---|

Verse #2
G|-------------------------------------------------|    
D|-------------------------------------------------| x4 
A|-------------------------------------------------|
E|-1-1-1-1---1-1-1-1---4-4-4-4---5-5-5---7-7-7-7---|

Chorus
G|-------------------------------------------------------------------------------------|
D|-------------------------------------------------------------------------------------| x2
A|-6-6-6-6-6-6-6-6-6-6-6---------------------------------------------------------------|
E|-------------------------4-4-4-4-4-4-4-4-4-4-4---7-7-7-7-7---6-6-6-6-6---4-4-4-4-4---|

Interlude
G|-----------------------------------------------------------------------------------------------------|
D|-----------------------------------------------------------------------------------------------------| x2
A|-6---8-8---6-----------------------------------------------------------------------------------------|
E|---------------8-8-8-8-8---6-6-8-6---4-4-4-4-4---4-4-6-4---8-8-8-8---6-6-8-6---4-4-4-4-4---4-4-6-4---|

Chorus
G|-------------------------------------------------------------------------------------|
D|-------------------------------------------------------------------------------------| x2
A|-6-6-6-6-6-6-6-6-6-6-6---------------------------------------------------------------|
E|-------------------------4-4-4-4-4-4-4-4-4-4-4---7-7-7-7-7---6-6-6-6-6---4-4-4-4-4---|


Thank You =)
Suggest correction
Give kudos to tab author, rate the tab!
1 2 3 4 5
comments
print report bad tab
guest
You may want to rate the tab now too:
select rating
Wanna post a correction for this tab? Suggest correction