Oops, an error
Loading. Please wait.

Poco Tiempo Por Vivir Tab

version 1
version 1

Whole song

57 views 1 this week
no commentswrite comment
1 2 3 4 5
3 more votes to show rating
add to favorites
launch autoscroll
font size
0
reset
how to read this tab
guitar tuner
×
Best way to learn
"Poco Tiempo Por Vivir"
Autoscroll
slow
fast
+/-
esc
set tempo
stop
esta es una correcion de los acordes anteriores, en donde pongo C7, 
donde iba un G7, pero ademas decidi hacer la tablatura de una vez espero 
que la disfruten y cualquier correccion es bien recibida, despues les 
mando el solo y el punteo del la introduccion.

Intro


          C              Am              Dm      G7       C       G

E ---------------------------------------------------------------------
B --------1-------1-------1-------1-------3-------0-------1-------3----
G ------0---0---0---0---2---2---2---2---2---2---0---0---0---0---0---0--
D ------------------------------------0--------------------------------
A ----3-------3-------0-------0-----------------------3----------------
E --------------------------------------------3---------------3--------


        Am                  C       G       Am       Dm      G7

E----------------------------------------------------------------------
B--------1------------------1-------3--------1--------3-------0--------
G------2---2---2----------0---0---0---0----2---2----2---2---0---0------
D-------------------------------------------------0--------------------
A----0-------0----0--2--3----------------0-----------------------------
E-------------------------------3-------------------------3------------

         C              

E--------0-------0---
B--------1-------1---
G------0---0---0---0-
D--------------------
A----3-------3-------
E--------------------


 
Te acercaste A MI una mañana       me dijiste pronto partire       

      C       G       Am                C       G      Am  
E-----0-------3-------0-----------------0-------3-------0---------------
B-----1-------3-------1-----------------1-------3-------1---------------
G---0---0---0---0---2---2---2---------0---0---0---0---2---2---2---------
D-----------------------------------------------------------------------
A-3---------------0-------0---0--2--3---------------0-------0----0--2--3
E---------3---------------------------------3---------------------------

Tus cabellos largos tu Mirada       la imagen de un hombre que ha sufrido

      C       G       Am                C       G      Am  
E-----0-------3-------0-----------------0-------3-------0---------------
B-----1-------3-------1-----------------1-------3-------1---------------
G---0---0---0---0---2---2---2---------0---0---0---0---2---2---2---------
D-----------------------------------------------------------------------
A-3---------------0-------0---0--2--3---------------0-------0----0--2--3
E---------3---------------------------------3---------------------------

Se ha ausentado el brillo de tus ojos   Se te agota el tiempo por vivir
  
      C       G       Am                C       G      Am  
E-----0-------3-------0-----------------0-------3-------0---------------
B-----1-------3-------1-----------------1-------3-------1---------------
G---0---0---0---0---2---2---2---------0---0---0---0---2---2---2---------
D-----------------------------------------------------------------------
A-3---------------0-------0---0--2--3---------------0-------0----0--2--3
E---------3---------------------------------3---------------------------


Ha de ser dificil tu partida         Siempre has sido un amigo fiel

      C       G       Am                C       G      Am  
E-----0-------3-------0-----------------0-------3-------0---------------
B-----1-------3-------1-----------------1-------3-------1---------------
G---0---0---0---0---2---2---2---------0---0---0---0---2---2---2---------
D-----------------------------------------------------------------------
A-3---------------0-------0---0--2--3---------------0-------0----0--2--3
E---------3---------------------------------3---------------------------

Se que tienes miedo y es muy triste    Piensa que ya es justo descansar.

      C       G       Am                C       G      Am  
E-----0-------3-------0-----------------0-------3-------0---------------
B-----1-------3-------1-----------------1-------3-------1---------------
G---0---0---0---0---2---2---2---------0---0---0---0---2---2---2---------
D-----------------------------------------------------------------------
A-3---------------0-------0---0--2--3---------------0-------0----0--2--3
E---------3---------------------------------3---------------------------

Solo?.. C   G   Am  C   G  Am


Como el viento libre seras          Como un ave el cielo cruzaras

      C       G       Am                C       G      Am  
E-----0-------3-------0-----------------0-------3-------0---------------
B-----1-------3-------1-----------------1-------3-------1---------------
G---0---0---0---0---2---2---2---------0---0---0---0---2---2---2---------
D-----------------------------------------------------------------------
A-3---------------0-------0---0--2--3---------------0-------0----0--2--3
E---------3---------------------------------3---------------------------

Limpio como el agua y sin temores    Donde al sol lo cubre el mar alli estaras

      C       G       Am                C       G      Am  
E-----0-------3-------0-----------------0-------3-------0---------------
B-----1-------3-------1-----------------1-------3-------1---------------
G---0---0---0---0---2---2---2---------0---0---0---0---2---2---2---------
D-----------------------------------------------------------------------
A-3---------------0-------0---0--2--3---------------0-------0----0--2--3
E---------3---------------------------------3---------------------------

Como el viento libre seras           Como un ave el cielo cruzaras

      C       G       Am                C       G      Am  
E-----0-------3-------0-----------------0-------3-------0---------------
B-----1-------3-------1-----------------1-------3-------1---------------
G---0---0---0---0---2---2---2---------0---0---0---0---2---2---2---------
D-----------------------------------------------------------------------
A-3---------------0-------0---0--2--3---------------0-------0----0--2--3
E---------3---------------------------------3---------------------------

Limpio como el agua y sin temores  Donde al sol lo cubre el mar alli estaras

      C       G       Am                C       G      Am  
E-----0-------3-------0-----------------0-------3-------0---------------
B-----1-------3-------1-----------------1-------3-------1---------------
G---0---0---0---0---2---2---2---------0---0---0---0---2---2---2---------
D-----------------------------------------------------------------------
A-3---------------0-------0---0--2--3---------------0-------0----0--2--3
E---------3---------------------------------3---------------------------


Donde al sol lo cubre el mar                Ooohh    Ooohh   Ooohh  
contigo yo estare
        
        C           G          Am             C           G        Am  
E-------0-----------3-----------0-------------0-----------3--------------0
B-----1---1-------3---3-------1---1---------1---1-------3---3----------1--
G---0-------0---0-------0---2--------2----0-------0---0-------0------2----
D-----------------------------------------------------------------2-------
A-3-----------------------0-------------3-----------------------0---------
E-------------3-------------------------------------3---------------------
Suggest correction
Give kudos to tab author, rate the tab!
1 2 3 4 5
comments
print report bad tab
guest
You may want to rate the tab now too:
select rating
Wanna post a correction for this tab? Suggest correction