Oops, an error
Loading. Please wait.

Poco Tiempo Por Vivir Tab

version 2
version 2

Whole song

19 views 3 this week
no commentswrite comment
1 2 3 4 5
3 more votes to show rating
add to favorites
launch autoscroll
font size
0
reset
how to read this tab
guitar tuner
×
Best way to learn
"Poco Tiempo Por Vivir"
Autoscroll
slow
fast
+/-
esc
set tempo
stop
|12-13-15-|15-13-12----|-------8-|------------------------|12-13-15-|
|---------|---------15-|13-------|13-12----------12-13-15-|---------|
|---------|------------|---------|------14-12-14----------|---------|
|---------|------------|---------|------------------------|---------|
|---------|------------|---------|------------------------|---------|
|---------|------------|---------|------------------------|---------|


|15-13-12----------|---12-12----|---------------|------|------------|------------|
|---------15-13-15-|15----------|---------------|------|12-------12-|12-12-12-12-|
|------------------|------------|----------9-10-|12-14-|------14----|------------|
|------------------|------------|---10-12-------|------|------------|------------|
|------------------|------------|---------------|------|------------|------------|
|------------------|------------|---------------|------|------------|------------|


|---------|---------|------------|---------------------|---------------|19-19-19-|
|---------|---------|------------|---------------------|---------------|---------|
|14-------|---------|-7--------7-|-9-10--9--7--9-10--9-|---------10--9-|---------|
|----7--9-|10--9-10-|----9-10----|---------------------|---------------|---------|
|---------|---------|------------|---------------------|---------------|---------|
|---------|---------|------------|---------------------|---------------|---------|


|------------|---------------------|
|15-15-17-18-|17-18-17-15-17-18-17-|
|------------|---------------------|
|------------|---------------------|
|------------|---------------------|
|------------|---------------------|


Este es el solo de la cancion 'poco tiempo por vivir', la verdad es
que no se manejar tiempos en este tipo de tablatura asi que escuchenla
y veran que es casi perfecta. pueden escribirme para que les de el midi
de este SOLO.

espero les guste
Suggest correction
Give kudos to tab author, rate the tab!
1 2 3 4 5
comments
print report bad tab
guest
You may want to rate the tab now too:
select rating
Wanna post a correction for this tab? Suggest correction