Oops, an error
Loading. Please wait.

Poco Tiempo Por Vivir Tab

version 3
version 3

Whole song

80 views 1 this week
no commentswrite comment
1 2 3 4 5
3 more votes to show rating
add to favorites
launch autoscroll
font size
0
reset
how to read this tab
guitar tuner
×
Best way to learn
"Poco Tiempo Por Vivir"
Autoscroll
slow
fast
+/-
esc
set tempo
stop
POCO TIEMPO POR VIVIR- TRANSITO LIBRE

INTRO
            C               A               D
E |------------------------------------------------------
B |---------1-------1-------1-------1-------3-------0----
G |-------0---0---0---0---2---2---2---2---2---2---0---0--
D |-------------------------------------0----------------
A |-0-2-3-------3-------0-------0------------------------
E |---------------------------------------------3--------

      C        G
E |-----------------
B |--1-------3------
G |----0------0-----
D |------2------0---
A |-3---------------
E |--------3--------

        A              C        D               C       E
E |----------------------------------------------------------------
B |-----1--------------1--------3-------0-------1-------0----------
G |---2---2---2------0---0----2---2---0---0---0---0---0---0--------
D |-------------------------0--------------------------------------
A |-0-------0---0-2-3-----------------------3----------------------
E |---------------------------------3---------------0--------------


Te acercaste a mí una mañana

      C        E        A
E |-----------------------------------------------------------
B |-1---1----0---0----1---1---1-------------------------------
G |---0---0----0---0----2---2---2-----------------------------
D |-----------------------------------------------------------
A |-3--------2--------0-----------0-2-------------------------
E |-----------------------------------------------------------

Me dijiste pronto partiré

      C        E        A
E |-----------------------------------------------------------
B |-1---1----0---0----1---1---1-------------------------------
G |---0---0----0---0----2---2---2-----------------------------
D |-----------------------------------------------------------
A |-3--------2--------0-----------0-2-------------------------
E |-----------------------------------------------------------

Tus cabellos blancos tu mirada

      C        E        A
E |-----------------------------------------------------------
B |-1---1----0---0----1---1---1-------------------------------
G |---0---0----0---0----2---2---2-----------------------------
D |-----------------------------------------------------------
A |-3--------2--------0-----------0-2-------------------------
E |-----------------------------------------------------------


La imagen de un hombre que ha sufrido

      C        E        A
E |-----------------------------------------------------------
B |-1---1----0---0----1---1---1-------------------------------
G |---0---0----0---0----2---2---2-----------------------------
D |-----------------------------------------------------------
A |-3--------2--------0-----------0-2-------------------------
E |-----------------------------------------------------------

Se ha ausentado el brillo de tus ojos

      C        E        A
E |-----------------------------------------------------------
B |-1---1----0---0----1---1---1-------------------------------
G |---0---0----0---0----2---2---2-----------------------------
D |-----------------------------------------------------------
A |-3--------2--------0-----------0-2-------------------------
E |-----------------------------------------------------------

Se te agota el tiempo por vivir

      C        E        A
E |-----------------------------------------------------------
B |-1---1----0---0----1---1---1-------------------------------
G |---0---0----0---0----2---2---2-----------------------------
D |-----------------------------------------------------------
A |-3--------2--------0-----------0-2-------------------------
E |-----------------------------------------------------------

Ha de ser difícil tu partida

      C        E        A
E |-----------------------------------------------------------
B |-1---1----0---0----1---1---1-------------------------------
G |---0---0----0---0----2---2---2-----------------------------
D |-----------------------------------------------------------
A |-3--------2--------0-----------0-2-------------------------
E |-----------------------------------------------------------

Siempre has sido un amigo fiel

      C        E        A
E |-----------------------------------------------------------
B |-1---1----0---0----1---1---1-------------------------------
G |---0---0----0---0----2---2---2-----------------------------
D |-----------------------------------------------------------
A |-3--------2--------0-----------0-2-------------------------
E |-----------------------------------------------------------


Se que tienes miedo y es muy triste

      C        E        A
E |-----------------------------------------------------------
B |-1---1----0---0----1---1---1-------------------------------
G |---0---0----0---0----2---2---2-----------------------------
D |-----------------------------------------------------------
A |-3--------2--------0-----------0-2-------------------------
E |-----------------------------------------------------------

Piensa que ya es  justo descansar

      C        E        A
E |-----------------------------------------------------------
B |-1---1----0---0----1---1---1-------------------------------
G |---0---0----0---0----2---2---2-----------------------------
D |-----------------------------------------------------------
A |-3--------2--------0-----------0-2-------------------------
E |-----------------------------------------------------------


      C        E        A
E |-----------------------------------------------------------
B |-1---1----0---0----1---1---1-------------------------------
G |---0---0----0---0----2---2---2-----------------------------
D |-----------------------------------------------------------
A |-3--------2--------0-----------0-2-------------------------
E |-----------------------------------------------------------


CORO (la primer guitarra sigue con el arpegio)

Segunda guitarra

Como el viento libre serás
     C             G           A
E |-0--0---0-0---3--3---0-0---0--0---0--0-0-0--------------------
B |-1--1---0-0---3--3---0-0---1--1---1--1-1-1--------------------
G |-0--0---0-0---0--0---0-0---2--2---2--2-2-2--------------------
D |-2--2---0-----0--0---0-----2--2---2------2---2-2--------------
A |-3--3---0-----2--2---0-----0--0---0------0---0-2--------------
E |-0--0---0-----3--3---0-----0--0---0------0---0-0--------------


Como un ave el cielo cruzaras
    C             G           A
E |-0--0---0-0---3--3---0-0---0--0---0--0-0-0--------------------
B |-1--1---0-0---3--3---0-0---1--1---1--1-1-1--------------------
G |-0--0---0-0---0--0---0-0---2--2---2--2-2-2--------------------
D |-2--2---0-----0--0---0-----2--2---2------2---2-2--------------
A |-3--3---0-----2--2---0-----0--0---0------0---0-2--------------
E |-0--0---0-----3--3---0-----0--0---0------0---0-0--------------


Limpio como el agua y sin temores
     C             G           A
E |-0--0---0-0---3--3---0-0---0--0---0--0-0-0--------------------
B |-1--1---0-0---3--3---0-0---1--1---1--1-1-1--------------------
G |-0--0---0-0---0--0---0-0---2--2---2--2-2-2--------------------
D |-2--2---0-----0--0---0-----2--2---2------2---2-2--------------
A |-3--3---0-----2--2---0-----0--0---0------0---0-2--------------
E |-0--0---0-----3--3---0-----0--0---0------0---0-0--------------


Donde al sol lo cubre el mar hay estarás
     C             G           A
E |-0--0---0-0---3--3---0-0---0--0---0--0-0-0--------------------
B |-1--1---0-0---3--3---0-0---1--1---1--1-1-1--------------------
G |-0--0---0-0---0--0---0-0---2--2---2--2-2-2--------------------
D |-2--2---0-----0--0---0-----2--2---2------2---2-2--------------
A |-3--3---0-----2--2---0-----0--0---0------0---0-2--------------
E |-0--0---0-----3--3---0-----0--0---0------0---0-0--------------


Como el viento libre serás
     C             G           A
E |-0--0---0-0---3--3---0-0---0--0---0--0-0-0--------------------
B |-1--1---0-0---3--3---0-0---1--1---1--1-1-1--------------------
G |-0--0---0-0---0--0---0-0---2--2---2--2-2-2--------------------
D |-2--2---0-----0--0---0-----2--2---2------2---2-2--------------
A |-3--3---0-----2--2---0-----0--0---0------0---0-2--------------
E |-0--0---0-----3--3---0-----0--0---0------0---0-0--------------


Como un ave el cielo cruzaras
     C             G           A
E |-0--0---0-0---3--3---0-0---0--0---0--0-0-0--------------------
B |-1--1---0-0---3--3---0-0---1--1---1--1-1-1--------------------
G |-0--0---0-0---0--0---0-0---2--2---2--2-2-2--------------------
D |-2--2---0-----0--0---0-----2--2---2------2---2-2--------------
A |-3--3---0-----2--2---0-----0--0---0------0---0-2--------------
E |-0--0---0-----3--3---0-----0--0---0------0---0-0--------------


Limpio como el agua y sin temores
     C             G           A
E |-0--0---0-0---3--3---0-0---0--0---0--0-0-0--------------------
B |-1--1---0-0---3--3---0-0---1--1---1--1-1-1--------------------
G |-0--0---0-0---0--0---0-0---2--2---2--2-2-2--------------------
D |-2--2---0-----0--0---0-----2--2---2------2---2-2-------------
A |-3--3---0-----2--2---0-----0--0---0------0---0-2--------------
E |-0--0---0-----3--3---0-----0--0---0------0---0-0--------------


Donde al sol lo cubre el mar hay estarás
C             G           A
E |-0--0---0-0---3--3---0-0---0--0---0--0-0-0--------------------
B |-1--1---0-0---3--3---0-0---1--1---1--1-1-1--------------------
G |-0--0---0-0---0--0---0-0---2--2---2--2-2-2--------------------
D |-2--2---0-----0--0---0-----2--2---2------2---2----------------
A |-3--3---0-----2--2---0-----0--0---0------0---0----------------
E |-0--0---0-----3--3---0-----0--0---0------0---0----------------


Donde al sol lo cubre el mar con tigo yo estaré eh????
      C        E        A
E |-----------------------------------------------------------
B |-1---1----0---0----1---1---1-------------------------------
G |---0---0----0---0----2---2---2-----------------------------
D |-----------------------------------------------------------
A |-3--------2--------0-----------0-2-------------------------
E |-----------------------------------------------------------


      C        E        A
E |-----------------------------------------------------------
B |-1---1----0---0----1---1---1-------------------------------
G |---0---0----0---0----2---2---2-----------------------------
D |-----------------------------------------------------------
A |-3--------2--------0-----------0-2-------------------------
E |-----------------------------------------------------------


      C        E        A
E |-------------------------------------------0----------------
B |-1---1----0---0----1---1---1-------------1------------------
G |---0---0----0---0----2---2---2---------0--------------------
D |-------------------------------------2----------------------
A |-3--------2--------0-----------0-2-3------------------------
E |------------------------------------------------------------


Algun comentario mi correo es gilver_451@
Suggest correction
Give kudos to tab author, rate the tab!
1 2 3 4 5
comments
print report bad tab
guest
You may want to rate the tab now too:
select rating
Wanna post a correction for this tab? Suggest correction