Oops, an error
Loading. Please wait.

Altura Magneficiente Tab

68 views 3 this week
no commentswrite comment
1 2 3 4 5
3 more votes to show rating
add to favorites
launch autoscroll
font size
0
reset
how to read this tab
guitar tuner
Autoscroll
slow
fast
+/-
esc
set tempo
stop
Help us to improve Ultimate-Guitar.com Take our survey!
×
e |---------0--------------|---------0----------------|
B |----------0-------------|-----------0--------------|
G |--------0----0-----0---0|--------0----0-----0---0--|
D |-------2----------2---0-|-------2----------2---0---|
A |------2--------0-3--2---|------2--------0-3---2----|
E |-3-2-0------------------|-3-2-0--------------------|

e |-----0------3P2------3P2---|
B |----1-1----3---3----3---3--|
G |---2---2--2-----2--2-----2-| 
D |--2------0--------0--------|
A |-0-------------------------|
E |---------------------------|

ESTOS ARPEGIOS SE REPITEN EN TODA LA CANCION
AL FINAL SE TOCA EL ARCODE DE Em HACIENDO UN RASGUEO LENTO

SUGERENCIAS, COMENTARIOS:
alexeldermx@
o al ICQ #35637307
Suggest correction
Give kudos to tab author, rate the tab!
1 2 3 4 5
comments
print report bad tab
guest
You may want to rate the tab now too:
select rating
Wanna post a correction for this tab? Suggest correction