Oops, an error
Loading. Please wait.

Angel Enfermo Tab

177 views 1 this week
no commentswrite comment
1 2 3 4 5
3 more votes to show rating
add to favorites
×
Save as Personal and add changes to this tab that will be seen only by you. Learn more ›
×
You can save this tab as Personal to edit and correct it or add notes. All changes will be seen only by you. Learn more »
save as personal
new!
launch autoscroll
font size
0
reset
how to read this tab
guitar tuner
Autoscroll
slow
fast
+/-
esc
set tempo
stop
camara la banda... dedicada para mis camaradas de la banda
"SIC ANGEL" DE TULANCINGO HIDALGO................


C#|---------------------------------
G#|---------------------------------
 E|---------------------------------
 B|------2-1h2p1------2-2/3-3-------
F#|-----2------------2--------------
C#|-000----------000----------------

TIEMPO-0:42
C#|---------------------------------
G#|---------------------------------
 E|---------------------------------
 B|---------------------------------
F#|-222222222222222222222222222222--
C#|-000000000000000000000000000000?-

C#|-------------------------------------------------
G#|-------------------------------------------------
 E|-------------------------------------------------
 B|-------------------------------------------------
F#|-2-22-22-------------2-22-22---------------------
C#|-0-00-00-3^6^3-2^5^2-0-00-00-7650-7650-----------

C#|---------------------------------
G#|---------------------------------
 E|---------------------------------
 B|------2-1h2p1------2-2/3-3-------
F#|-----2------------2--------------
C#|-000----------000----------------

C#|---------------------------
G#|---------------------------
 E|---------------------------
 B|---------------------------
F#|-------3b------------------
C#|-2?-0-2---0-2-3b-0-2-3-0---

C#|---------------------------
G#|---------------------------
 E|---------------------------
 B|---------------------------
F#|-222222222222222222222-3b--
C#|-000000000000000000000-----

C#|---------------------------------
G#|---------------------------------
 E|---------------------------------
 B|---------------------------------
F#|-222-222-222-222-222-222-222-3b--
C#|-000-000-000-000-000-000-000-----

C#|---------------------------------
G#|---------------------------------
 E|---------------------------------
 B|------2-1h2p1------2-2/3-3-------
F#|-----2------------2--------------
C#|-000----------000----------------

C#|---------------------------------
G#|---------------------------------
 E|---------------------------------
 B|---------------------------------
F#|-222222222222222222222222222222--
C#|-000000000000000000000000000000?-

UN BESO PAL ARTURO..... QUE LE LATIO EL MEXICO BARBARO
Suggest correction
Give kudos to tab author, rate the tab!
1 2 3 4 5
comments
print report bad tab
guest
Wanna post a correction for this tab? Suggest correction