Oops, an error
Loading. Please wait.

Atormentados Del Cerebro Tab

34 views 1 this week
no commentswrite comment
1 2 3 4 5
3 more votes to show rating
add to favorites
launch autoscroll
font size
0
reset
how to read this tab
guitar tuner
Autoscroll
slow
fast
+/-
esc
set tempo
stop
TRANSCRIBED BY RUDY GUZMAN
guzman_84@

:-------------------------------|
:-------------------------------|
:-------------------------------|
:-------------------------------|
:-2---8---7----2---8---7---X\---|
:-0---6---5----0---6---5---X\---|

eb:------------------------------|
Bb:------------------------------|
Gb:------------------------------|
Db:------------------------------|
Ab:-2-------------8-7------------|
Eb:-0--0-0-0-0-0--6-5--5-5-5-5-5-|

eb:------------------------------|
Bb:------------------------------|
Gb:------------------------------|
Db:------------------------------|
Ab:-2-------------8-7------------|
Eb:-0--0-0-0-0-0--6-5--5-5-5-5-5-|

:-------------------------------|
:-------------------------------|
:-------------------------------|
:-------------------------------|
:-2---8---7----2---8---7---X\---|
:-0---6---5----0---6---5---X\---|

eb:------------------------------|
Bb:------------------------------|
Gb:------------------------------|
Db:------------------------------|
Ab:-2-------------8-7------------|
Eb:-0--0-0-0-0-0--6-5--5-5-5-5-5-|

eb:------------------------------|
Bb:------------------------------|
Gb:------------------------------|
Db:------------------------------|
Ab:-2-------------8-7------------|
Eb:-0--0-0-0-0-0--6-5--5-5-5-5-5-|

:---------------------------------|
:---------------------------------|
:---------------------------------|
:---------------------------------|
:-2---8---7----2---8---7---X\---7-|
:-0---6---5----0---6---5---X\---5-|


eb:-----------------------------------------------------------------|
Bb:-----------------------------------------------------------------|
Gb:-----------------------------------------------------------------|
Db:-----------------------------8-7-----------------------------7-8-|
Ab:-000-000-000-000-000-000-000-6-5-000-000-000-000-000-000-000-5-6-|
Eb:-----------------------------------------------------------------|

:-------------------------------------------------------------|
:-------------------------------------------------------------|
:-------------------------------------------------------------|
:-2-2-2-2-2--8-7---------------2-2-2-2-2--8-7-12-12-12-12-12--|
:-0-0-0-0-0--6-5--5-5-5-5-5-5--0-0-0-0-0--6-5-10-10-10-10-10--|
:-----------------3-3-3-3-3-3---------------------------------|

:-------------------------------------------------------------|
:-------------------------------------------------------------|
:-------------------------------------------------------------|
:-2-2-2-2-2--8-7---------------2-2-2-2-2--8-7-10-10-10-10-10--|
:-0-0-0-0-0--6-5--5-5-5-5-5-5--0-0-0-0-0--6-5-8--8--8--8--8---|
:-----------------3-3-3-3-3-3---------------------------------|

eb:-----------------------------------------------------------------|
Bb:-----------------------------------------------------------------|
Gb:-----------------------------------------------------------------|
Db:-----------------------------8-7-----------------------------7-8-|
Ab:-000-000-000-000-000-000-000-6-5-000-000-000-000-000-000-000-5-6-|
Eb:-----------------------------------------------------------------|

:----------------------------------------------------------|
:----------------------------------------------------------|
:----------------------------------------------------------|
:-2-2-2-2-2--8-7---------------2-2-2-2-2--8-7--8-8-8-8-8-8-|
:-0-0-0-0-0--6-5--5-5-5-5-5-5--0-0-0-0-0--6-5--6-6-6-6-6-6-|
:-----------------3-3-3-3-3-3------------------------------|

:----------------------------------------------------------|
:----------------------------------------------------------|
:----------------------------------------------------------|
:-2-2-2-2-2--8-7---------------2-2-2-2-2--8-7--8-8-8-8-8-8-|
:-0-0-0-0-0--6-5--5-5-5-5-5-5--0-0-0-0-0--6-5--6-6-6-6-6-6-|
:-----------------3-3-3-3-3-3------------------------------|


:---------------------------------------------|
:---------------------------------------------|
:---------------------------------------------|
:---------------------------------------------|
:-------------------1-2-------------------2-1-|
:-1-1-1-1-1-1-1-1-1-----1-1-1-1-1-1-1-1-1-----|

:---------------------------------------------|
:---------------------------------------------|
:---------------------------------------------|
:---------------------------------------------|
:-------------------3-4-------------------5-4-|
:-3-3-3-3-3-3-3-3-3-----3-3-3-3-3-3-3-3-3-----|

:---------------------------------------------|
:---------------------------------------------|
:---------------------------------------------|
:---------------------------------------------|
:-------------------1-2-------------------2-1-|
:-1-1-1-1-1-1-1-1-1-----1-1-1-1-1-1-1-1-1-----|

:--------------------------|
:--------------------------|
:--------------------------|
:--------------------------|
:-2-3--8-7-----------------|
:-0-1--6-5--55555555555555-|

:----------------------|
:----------------------|
:----------------------|
:----------------------|
:-2--5--3--2-2-2-2-2-2-|
:-0--3--1--0-0-0-0-0-0-|

eb:-----------------------------------------------------------------|
Bb:-----------------------------------------------------------------|
Gb:-----------------------------------------------------------------|
Db:-----------------------------8-7-----------------------------7-8-|
Ab:-000-000-000-000-000-000-000-6-5-000-000-000-000-000-000-000-5-6-|
Eb:-----------------------------------------------------------------|

:----------------------------------------------------------|
:----------------------------------------------------------|
:----------------------------------------------------------|
:-2-2-2-2-2--8-7---------------2-2-2-2-2--8-7--8-8-8-8-8-8-|
:-0-0-0-0-0--6-5--5-5-5-5-5-5--0-0-0-0-0--6-5--6-6-6-6-6-6-|
:-----------------3-3-3-3-3-3------------------------------|

:-------------------------------------------------------------|
:-------------------------------------------------------------|
:-------------------------------------------------------------|
:-2-2-2-2-2--8-7---------------2-2-2-2-2--8-7-10-10-10-10-10--|
:-0-0-0-0-0--6-5--5-5-5-5-5-5--0-0-0-0-0--6-5-8--8--8--8--8---|
:-----------------3-3-3-3-3-3---------------------------------|

:---------------------------------------------|
:---------------------------------------------|
:---------------------------------------------|
:---------------------------------------------|
:-------------------1-2-------------------2-1-|
:-1-1-1-1-1-1-1-1-1-----1-1-1-1-1-1-1-1-1-----|

:---------------------------------------------|
:---------------------------------------------|
:---------------------------------------------|
:---------------------------------------------|
:-------------------3-4-------------------5-4-|
:-3-3-3-3-3-3-3-3-3-----3-3-3-3-3-3-3-3-3-----|

:---------------------------------------------|
:---------------------------------------------|
:---------------------------------------------|
:---------------------------------------------|
:-------------------1-2-------------------2-1-|
:-1-1-1-1-1-1-1-1-1-----1-1-1-1-1-1-1-1-1-----|

:--------------------------|
:--------------------------|
:--------------------------|
:--------------------------|
:-2-3--8-7-----------------|
:-0-1--6-5--55555555555555-|

:----------------------|
:----------------------|
:----------------------|
:----------------------|
:-2--5--3--2-2-2-2-2-2-|
:-0--3--1--0-0-0-0-0-0-|

:--------------------------|
:--------------------------|
:--------------------------|
:--------------------------|
:-2-3--8-7-----------------|
:-0-1--6-5--55555555555555-|

:----------------------|
:----------------------|
:----------------------|
:----------------------|
:-2--5--3--2-2-2-2-2-2-|
:-0--3--1--0-0-0-0-0-0-|

eb:-----------------------------------------------------------------|
Bb:-----------------------------------------------------------------|
Gb:-----------------------------------------------------------------|
Db:-----------------------------8-7-----------------------------7-8-|
Ab:-000-000-000-000-000-000-000-6-5-000-000-000-000-000-000-000-5-6-|
Eb:-----------------------------------------------------------------|

solo
:-18p15-17p15-|----------------15----|----------------------------------------------------|
:-------------|-18p15-18p15-18----18-|-18p15-17p15----15----------------17----------------|
:-------------|----------------------|-------------17----17-17p15-17p15----17p15-17p15----|
:-------------|----------------------|-------------------------------------------------17-|
:-------------|----------------------|----------------------------------------------------|
:-------------|----------------------|----------------------------------------------------|

eb:-----------------------------------------------------------------15h18p15h17p15----15-|
Bb:---------------------------------------------15ah-14ah------7-8-----------------18----|
Gb:-15-------------------15----15-17AH~~--17/12--------------7---------------------------|
Db:----17-17p15-17p15-17----17-----------------------------------------------------------|
Ab:--------------------------------------------------------------------------------------|
Eb:--------------------------------------------------------------------------------------|

:----------------------------------------------|
:-18p15-18p15---15-----------------------------|
:-------------17---17p15-17p15--17ah~~-17ah~~~-|
:----------------------------------------------|
:----------------------------------------------|
:----------------------------------------------|

eb:-----------------------------------------------------------------|
Bb:-----------------------------------------------------------------|
Gb:-----------------------------------------------------------------|
Db:-----------------------------8-7-----------------------------7-8-|
Ab:-000-000-000-000-000-000-000-6-5-000-000-000-000-000-000-000-5-6-|
Eb:-----------------------------------------------------------------|

eb:-----------|
Bb:-----------|
Gb:-----------|
Db:-----------|
Ab:-5---------|
Eb:-3---------|

Mxtabs [
the white man marches on


american history x


TRANSCRIBED BY RUDY GUZMAN


guzman_84@

note:
play the first chord with normal a normal pitch, then pitch it down up, 
from the first string to the 6th string, but do not pitch one string at the time, 
just the whole chord down up.

my eyes have seen the glory of.....
e:-0--0------0-0------0-0------0-0------0-0------0-|
B:-0---0-----0--0-----0--0-----0--0-----0--0-----0-|
G:-1----1----1---1----1---1----1---1----1---1----1-|
D:-2-----2---2----2---2----2---2----2---2----2---2-|
A:-2------2--2-----2--2-----2--2-----2--2-----2--2-|
E:-0-------0-0------0-0------0-0------0-0------0-0-|

we wash ourselfs with niggers blood and all the.....
e:-0-0-----0-0-----0-0-----0-0-----0-0-----0-|
B:-2--2----2--2----2--2----2--2----2--2----2-|
G:-2---2---2---2---2---2---2---2---2---2---2-|
D:-2----2--2----2--2----2--2----2--2----2--2-|
A:-0-----0-0-----0-0-----0-0-----0-0-----0-0-|
E:-------------------------------------------|
we are taking out the soft machine
e:-0--0------0-0------0-0------0-0------0-0------0-|
B:-0---0-----0--0-----0--0-----0--0-----0--0-----0-|
G:-1----1----1---1----1---1----1---1----1---1----1-|
D:-2-----2---2----2---2----2---2----2---2----2---2-|
A:-2------2--2-----2--2-----2--2-----2--2-----2--2-|
E:-0-------0-0------0-0------0-0------0-0------0-0-|

jud by jud by jud
e:-4---4---4------|
B:-5-5-5-5-5-5--0-|
G:-6-6-6-6-6-6--0-|
D:-6-6-6-6-6-6--0-|
A:-4-4-4-4-4-4--0-|
E:----------------|

the white man marches  on
e:---------------------0-----|
B:------------2--------0-----|
G:---3-3---3--2--------1-----|
D:-4-4-4-4-4--2----1---2-----|
A:-4-4-4-4-4--0--------2-----|
E:-2-2-2-2-2-----------0-----|
Suggest correction
Give kudos to tab author, rate the tab!
1 2 3 4 5
comments
print report bad tab
guest
Wanna post a correction for this tab? Suggest correction