Oops, an error
Loading. Please wait.

Dios Nos Agarre Confesados Chords

100 views 3 this week
no commentswrite comment
1 2 3 4 5
3 more votes to show rating
add to favorites
launch autoscroll
font size
0
reset
transpose
0
reset
display chords
guitar tuner
×
Best way to learn
"Dios Nos Agarre Confesados"
Autoscroll
slow
fast
+/-
esc
set tempo
stop
DIOS NOS AGARRE CONFESADOS
As recorded by Transmetal
(From the Album Mexico Barbaro)


Arranged by Edgar Corona
Transcripcion por Edgar Corona.
Los Angeles, CA
e-mail..
si necesitan una tab de estos monos...


Gtr I (D A D G B E) 
Gtr II (D A D G B E) 

   4/4
    Gtrs I, II
    ~                ~~
  Riff A                                   4x
||------------------------------------------||---|
||o----------------------------------------o||---|
||------9-----------------------------------||---|
||--2---9---7---9---10----------------------||---|
||o-2---7---5---7----8---------------------o||---|
||--0--------------------0-0-[3]h5-[3]\-2---||---|

   Grt's I,II
  Riff B                                          4x
||--------------------------------------------------||---|
||o------------------------------------------------o||---|
||--------------------------------------------------||---|
||------9---7---9---10---([10])---------------------||---|
||o-2---7---5---7----8-----------------------------o||---|
||--0----------------------------0--0--3h=5---3p=2--||---|

    Gtrs I, II
  Riff C    ~                  ~~~~                ~
||------------------------------------------------------------------------||-|
||o----------------------------------------------------------------------o||-|
||------------------------------------------------------------------------||-|
||--2-------9---------2-------10-9---------2-------9----------------------||-|
||o-2-------7---------2--------8-7---------2-------7---------------------o||-|
||--0--0-0-----0-0-0--0--0-0--------0-0-0--0--0-0------0-0-3h5-3p2\-3\-0--||-|


    Gtrs I, II
  Riff D
||----------------------------------------------------------------------||---|
||o--------------------------------------------------------------------o||---|
||----------------------------------------------------------------------||---|
||--2------[9]-------2------[10]----------2------[9]--------------------||---|
||o-2----------------2--------------------2----------------------------o||---|
||--0--0-0-----0-0-0-0--0-0---------0-0-0-0--0-0-----0-0-3h5-3p2\-3\-0--||---|


      Gtrs I, II
   Riff E                                                                                4x
||----------------------------------------------------------------------------------------||
||o--------------------------------------------------------------------------------------o||
||----------------------------------------------------------------------------------------||
||--2-----------------------------------------2-------------------------------------------||
||o-2-----------------------------------------2------------------------------------------o||
||--0-0-0--0-0-0--0-0-0--0-0-0--0-0-0--0-0-0--0-0-0--0-0-0--0-0-0--0-0-0--0-0-0--0-0-0-- -||

Riff's F
  Gtr I                                               
|-----------------------------------------------------------------------------
|-----------------------------------------------------------------------------
|-----------------------------------------------------------------------------
|-9-10-12-10-9-7--9-10-12-10-9-7--12-14-15-14-12-9--12-14-15-14-12-9----------
|-7--8-10--8-7-5--7--8-10--8-7-5--10-12-13-12-10-7--10-12-13-12-10-7----------
|-----------------------------------------------------------------------------

--------------------------------------------|
--------------------------------------------|
--------------------------------------------|
----------------2---------------------------|
----------------2---------------------------|
0-0-0-0-0-0-0-0-0-0-0-0-0-0-0-0-0-0---------|

 Gtr II
|-----------------------------------------------------------------------------
|-----------------------------------------------------------------------------
|-9-10-12-10-9-7--9-10-12-10-9-7--12-14-15-14-12-9--12-14-15-14-12-9----------
|-----------------------------------------------------------------------------
|-7--8-10--8-7-5--7--8-10--8-7-5--10-12-13-12-10-7--10-12-13-12-10-7----------
|-----------------------------------------------------------------------------

----------------------------------------------------|
----------------------------------------------------|
----------------------------------------------------|
--------------2-------------------------------------|
--------------2-------------------------------------|
0-0-0-0-0-0-0-0-0-0-0-0-0-0-0-0-0-0-----------------|

Riff's G
  Gtr I
|-----------------------------------------------|
|-----------------------------------------------|
|-----------------------------------------------|
|-----------------2-----------------------------|
|-----------------2-----------------------------|
|-0-0-0---0-0-0---0-0-0---0-0-0---0-0-0---0-0-0-|

 Gtr II
|-----------------------------------------------|
|-----------------------------------------------|
|-----------------------------------------------|
|-----------------2-----------------------------|
|-----------------2-----------------------------|
|-0-0-0---0-0-0---0-0-0---0-0-0---0-0-0---0-0-0-|

Outro..........
|--------------------------------|
|--------------------------------|
|--------------------------------|
|-7-9-7-9-10----------------2----|
|-5-7-5-7--8----------------2----|
|------------0-0-3h5\-3\-2\-0----|


Progression de la rola....................

Riff   A con el primer verso.
Riff   B
Riff   C con los segundos versos.
Riff   D con los siguientes versos.
Riff   E con el coro.
Riff's F
Riff's G
Riff   E con el coro.
Riff   C con los otros versos.
Riff   D con los siguientes versos.

Riff   G con el solo...

Riff's F
Riff's G
Riff   E con el coro.
Outro................

Los solos se los improvisan ustedes porque meda gueva....
Suggest correction
Give kudos to tab author, rate the tab!
1 2 3 4 5
comments
print report bad tab
guest
You may want to rate the tab now too:
select rating
Wanna post a correction for this tab? Suggest correction