Oops, an error
Loading. Please wait.

El Amor Supremo Tab

43 views 3 this week
no commentswrite comment
1 2 3 4 5
3 more votes to show rating
add to favorites
×
Save as Personal and add changes to this tab that will be seen only by you. Learn more ›
×
You can save this tab as Personal to edit and correct it or add notes. All changes will be seen only by you. Learn more »
save as personal
new!
launch autoscroll
font size
0
reset
how to read this tab
guitar tuner
Autoscroll
slow
fast
+/-
esc
set tempo
stop
ESTA ES MI PRIMER TRANSCRIPCION, Y SE TRATA DE UNA ROLA MUY MUY BUENA DE TRANSMETAL
ESPERO KE LA DISFRUTEN PARA CUALKIER ACLARACION AHI ESTA MI MAIL.
ATTE:DAIMONOZZ

AMOR SUPREMO:

INTRO:  TECLADOS.


(1:19)INTTRO GUITARRA(1 Y 2)

---------------------------------------------------------------------------------------
---------------------------------------------------------------------------------------
-6------------------------6------------------------------------------------------------
-6---7---4---7-7---9-9----6---7---2---7-7---9-9----------------------------------------
-4---7---4---7-7---9-9----4---7---2---7-7---9-9----------------------------------------
-----5---2---5-5---7-7--------5---4---5-5---7-7----------------------------------------


GUITARRA DOS CONTINUA CON:       (1:35)


---------------------------------------------------------------------------------------
---------------------------------------------------------------------------------------
-6------------------------6------------------------------------------------------------
-6---7---4---7-7---9-9----6---7---2---7-7---9-9----------------------------------------
-4---7---4---7-7---9-9----4---7---2---7-7---9-9----------------------------------------
-----5---2---5-5---7-7--------5---4---5-5---7-7----------------------------------------

GUITARRA UNO:                     (1:35)


----------------------------------------------------------------------------------------
----------------------------------------------------------------------------------------
----------------------------------------------------------------------------------------
--6-----------6-----------6-----------6-----------6-----------6-------------------------
----7-6-4-6-7---7-6-4-6-7---7-6-4-6-7---7-6-4-6-7---7-6-4-6-7---7-6-4-6-7---------------
----------------------------------------------------------------------------------------

AMBAS GUITARRAS:  (1:51)


----------------------------------------------------------------------------------------
----------------------------------------------------------------------------------------
----------------------------------------------------------------------------------------
--6-----------6-----------6-----------6-----------6-----------6-------------------------
----7-6-4-6-7---7-6-4-6-7---7-6-4-6-7---7-6-4-6-7---7-6-4-6-7---7-6-4-6-7---------------
----------------------------------------------------------------------------------------

TERMINA CON :         (2:05)


-------
-------
-------
---6---
---4---
-------


RIFF PRINCIPAL AMBAS GUITARRAS      (2:08)

----------------------------------------------------------------------------------------
----------------------------------------------------------------------------------------
----------------------------------------------------------------------------------------
----------------------------------------------------------------------------------------
---444433337777666644443333--------444433337777666644443333-----------------------------
---------------------------555544--------------------------555544-----------------------

RIFF INICIAL AMBAS GUITARRAS        (2:14)


---------------------------------------------------------------------------------------
---------------------------------------------------------------------------------------
-6------------------------6------------------------------------------------------------
-6---7---4---7-7---9-9----6---7---2---7-7---9-9----------------------------------------
-4---7---4---7-7---9-9----4---7---2---7-7---9-9----------------------------------------
-----5---2---5-5---7-7--------5---4---5-5---7-7----------------------------------------


RIFF PRINCIPAL CONTINUA GUIT 1,2      (2:22)


----------------------------------------------------------------------------------------
----------------------------------------------------------------------------------------
----------------------------------------------------------------------------------------
----------------------------------------------------------------------------------------
---444433337777666644443333--------444433337777666644443333-----------------------------
---------------------------555544--------------------------555544----------------------
NOCHE TRAS NOCHE ................   VI DE LAS ESTRELLAS SU ETERNO ......


----------------------------------------------------------------------------------------
----------------------------------------------------------------------------------------
----------------------------------------------------------------------------------------
----------------------------------------------------------------------------------------
---444433337777666644443333--------444433337777666644443333-----------------------------
---------------------------555544--------------------------555544-----------------------
HASTA KE MIRE ...................    Y UNA ESTRELLA .............


BRIDGE1 GUIT 1,2   (2:36)
(EL NUMERO ENTRE PARENTESIS ES ONCE)
----------------------------------------------------------------------------------------
----------------------------------------------------------------------------------------
----------------------------------------------------------------------------------------
-----88-7----88-7-----(11)(11)-10----(11)(11)-10----------------------------------------
---55-------55------88--------------88--------------------------------------------------
----------------------------------------------------------------------------------------


----------------------------------------------------------------------------------------
----------------------------------------------------------------------------------------
----------------------------------------------------------------------------------------
-----88-7----88-7-----(11)(11)-10----(11)(11)-10----------------------------------------
---55-------55------88--------------88--------------------------------------------------
----------------------------------------------------------------------------------------
EXALTACION....


----------------------------------------------------------------------------------------
----------------------------------------------------------------------------------------
----------------------------------------------------------------------------------------
-----88-7----88-7-----(11)(11)-10----(11)(11)-10----------------------------------------
---55-------55------88--------------88--------------------------------------------------
----------------------------------------------------------------------------------------
GRAN CORAZON DOLIENTE


----------------------------------------------------------------------------------------
----------------------------------------------------------------------------------------
----------------------------------------------------------------------------------------
-----88-7----88-7-----(11)(11)-10----(11)(11)-10----------------------------------------
---55-------55------88--------------88--------------------------------------------------
----------------------------------------------------------------------------------------
LARGA DESESPERANZA


RIFF INICIAL GUIT 1,2       (2:49)


---------------------------------------------------------------------------------------
---------------------------------------------------------------------------------------
-6------------------------6------------------------------------------------------------
-6---7---4---7-7---9-9----6---7---2---7-7---9-9----------------------------------------
-4---7---4---7-7---9-9----4---7---2---7-7---9-9----------------------------------------
-----5---2---5-5---7-7--------5---4---5-5---7-7----------------------------------------
AGITA EL AMOR..........    AGITA EL AMOOOR SUPREMOOOO


RIFF PRINCIPAL GUITS 1,2       (2:57)


----------------------------------------------------------------------------------------
----------------------------------------------------------------------------------------
----------------------------------------------------------------------------------------
----------------------------------------------------------------------------------------
---444433337777666644443333--------444433337777666644443333-----------------------------
---------------------------555544--------------------------555544-----------------------
FLAGELANTES E ..................    DERRAMANDO PENA .............


----------------------------------------------------------------------------------------
----------------------------------------------------------------------------------------
----------------------------------------------------------------------------------------
----------------------------------------------------------------------------------------
---444433337777666644443333--------444433337777666644443333-----------------------------
---------------------------555544--------------------------555544-----------------------
EN UN DESIERTO INHOSPITO....       VER LA GRANDEZA LLEGAR..VERLA PARTIR


RIFF INICIAL GUITS 1,2


---------------------------------------------------------------------------------------
---------------------------------------------------------------------------------------
-6------------------------6------------------------------------------------------------
-6---7---4---7-7---9-9----6---7---2---7-7---9-9----------------------------------------
-4---7---4---7-7---9-9----4---7---2---7-7---9-9----------------------------------------
-----5---2---5-5---7-7--------5---4---5-5---7-7----------------------------------------


(3:18)
-----
-----
-6---
-6---
-4---
-----


BRIDGE(2) GUIT 1      (3:21)


----------------------------------------------------------------------------------------
----------------------------------------------------------------------------------------
----------------------------------------------------------------------------------------
--77777---88888---77777---88888------1010101010----99999----1010101010----99999---------
----------------------------------------------------------------------------------------
-9-------9-------9-------9---------12------------12-------12------------12--------------


ACOMPAÑAMIENTO GUIT 2    (3:23)


----------------------------------------------------------------------------------------
----------------------------------------------------------------------------------------
----------------------------------------------------------------------------------------
----------------------------------------------------------------------------------------
---7----7-6---7----7-6-----------10----10-9----10----10-9-------------------------------
---9----9-8---9----9-8-----------12----12-11---12----12-11------------------------------


BRIDGE2  GUIT 1,2    (3:30)


----------------------------------------------------------------------------------------
----------------------------------------------------------------------------------------
----------------------------------------------------------------------------------------
--77777---88888---77777---88888------1010101010----99999----1010101010----99999---------
----------------------------------------------------------------------------------------
-9-------9-------9-------9---------12------------12-------12------------12--------------


SOLO:
ESTA BIEN MARCADO EN LA CANCION PERO ES MUY LARGO,
YO LO IMPROVISO CON ESCALAS PENTATONICAS Y 
EN ESCALA DE FA# Y ESCUCHA BIEN SI SE AVIENTA ATIEMPO

MIENTRAS ESTA EL SOLO LA GUITARRA 2 HACE:
----------------------------------------------------------------------------------------
----------------------------------------------------------------------------------------
----------------------------------------------------------------------------------------
--77777---88888---77777---88888------1010101010----99999----1010101010----99999---------
----------------------------------------------------------------------------------------
-9-------9-------9-------9---------12------------12-------12------------12--------------


BRIDGE2 GUITY 1,2        (3:53)


----------------------------------------------------------------------------------------
----------------------------------------------------------------------------------------
----------------------------------------------------------------------------------------
--77777---88888---77777---88888------1010101010----99999----1010101010----99999---------
----------------------------------------------------------------------------------------
-9-------9-------9-------9---------12------------12-------12------------12--------------


RIFF INICIAL GUIT 1,2      (4:02)


---------------------------------------------------------------------------------------
---------------------------------------------------------------------------------------
-6------------------------6------------------------------------------------------------
-6---7---4---7-7---9-9----6---7---2---7-7---9-9----------------------------------------
-4---7---4---7-7---9-9----4---7---2---7-7---9-9----------------------------------------
-----5---2---5-5---7-7--------5---4---5-5---7-7----------------------------------------


RIFF PRINCIPAL GUIT 1,2    (4:10)


----------------------------------------------------------------------------------------
----------------------------------------------------------------------------------------
----------------------------------------------------------------------------------------
----------------------------------------------------------------------------------------
---444433337777666644443333--------444433337777666644443333-----------------------------
---------------------------555544--------------------------555544-----------------------
HABIENDOLO SENTIDO EN EL CORAZON   ESCUPIENDO PESAR Y DESGRACIA


----------------------------------------------------------------------------------------
----------------------------------------------------------------------------------------
----------------------------------------------------------------------------------------
----------------------------------------------------------------------------------------
---444433337777666644443333--------444433337777666644443333-----------------------------
---------------------------555544--------------------------555544-----------------------
EL ALMA HUNDIDA EN EL FANGO         MORIR POR FUGAZ ILUSION


BRIDGE1 GUIT 1,2           (4:25)


----------------------------------------------------------------------------------------
----------------------------------------------------------------------------------------
----------------------------------------------------------------------------------------
-----88-7----88-7-----(11)(11)-10----(11)(11)-10----------------------------------------
---55-------55------88--------------88--------------------------------------------------
----------------------------------------------------------------------------------------


----------------------------------------------------------------------------------------
----------------------------------------------------------------------------------------
----------------------------------------------------------------------------------------
-----88-7----88-7-----(11)(11)-10----(11)(11)-10----------------------------------------
---55-------55------88--------------88--------------------------------------------------
----------------------------------------------------------------------------------------
EXALTACION


----------------------------------------------------------------------------------------
----------------------------------------------------------------------------------------
----------------------------------------------------------------------------------------
-----88-7----88-7-----(11)(11)-10----(11)(11)-10----------------------------------------
---55-------55------88--------------88--------------------------------------------------
----------------------------------------------------------------------------------------
    GRAN CORAZON DOLIENTE


----------------------------------------------------------------------------------------
----------------------------------------------------------------------------------------
----------------------------------------------------------------------------------------
-----88-7----88-7-----(11)(11)-10----(11)(11)-10----------------------------------------
---55-------55------88--------------88--------------------------------------------------
----------------------------------------------------------------------------------------
LARGA DESESPERANZA


RIFF INICIAL GUIT 1,2     (4:40)


---------------------------------------------------------------------------------------
---------------------------------------------------------------------------------------
-6------------------------6------------------------------------------------------------
-6---7---4---7-7---9-9----6---7---2---7-7---9-9----------------------------------------
-4---7---4---7-7---9-9----4---7---2---7-7---9-9----------------------------------------
-----5---2---5-5---7-7--------5---4---5-5---7-7----------------------------------------
AGITA EL AMOR..........    AGITA EL AMOOOR SUPREMOOOO


RIFF PRINCIPAL  GUIT 1,2  (4:47)


----------------------------------------------------------------------------------------
----------------------------------------------------------------------------------------
----------------------------------------------------------------------------------------
----------------------------------------------------------------------------------------
---444433337777666644443333--------444433337777666644443333-----------------------------
---------------------------555544--------------------------555544-----------------------
NOCHE TRAS NOCHE ................   VI DE LAS ESTRELLAS SU ETERNO ......


----------------------------------------------------------------------------------------
----------------------------------------------------------------------------------------
----------------------------------------------------------------------------------------
----------------------------------------------------------------------------------------
---444433337777666644443333--------444433337777666644443333-----------------------------
---------------------------555544--------------------------555544-----------------------
HASTA KE MIRE ...................    Y UNA ESTRELLA BAJO HACIA MI


RIFF INICIAL  GUIT 1,2      (5:02)


---------------------------------------------------------------------------------------
---------------------------------------------------------------------------------------
-6------------------------6------------------------------------------------------------
-6---7---4---7-7---9-9----6---7---2---7-7---9-9----------------------------------------
-4---7---4---7-7---9-9----4---7---2---7-7---9-9----------------------------------------
-----5---2---5-5---7-7--------5---4---5-5---7-7----------------------------------------


FINAL GUIT 1,2     (5:10)


-----
-----
-6---
-6---
-4---
-----


BUENO AHI LA TIENEN, ESPERO KE LES HAYA GUSTADO Y LE SEA UTIL, ESTA ROLA 
SE ESCUCHA EXCELENTE TOCADA CON TODA LA BANDA ;).
BUENO PUES PARA CUALKIER ACLARACION AHI TIENEN MI MAIL Y ANTES DE ,
DESPEDIRME ESTA ROLA SE LA KIERO DEDICAR A JORGE RESENDIZ(BATERISTA)
 A MIGUEL LOPEZ(GUITARRISTA) AL BUEN DINO(BAJO) Y A TODOS LOS KE ME 
APOYAN EN ESTO(BLACK EUCARISTHY).
ATTE: (DAIMONOZZ SAITAN)''OCTAVIO''
Suggest correction
Give kudos to tab author, rate the tab!
1 2 3 4 5
comments
print report bad tab
guest
Wanna post a correction for this tab? Suggest correction