Oops, an error
Loading. Please wait.

El Enterrador Tab

74 views 1 this week
no commentswrite comment
1 2 3 4 5
3 more votes to show rating
add to favorites
launch autoscroll
font size
0
reset
how to read this tab
guitar tuner
×
Best way to learn
"El Enterrador"
Autoscroll
slow
fast
+/-
esc
set tempo
stop
TRANSCRIBED BY RUDY GUZMAN
guzman_84@


intro
eb:-------------------|
Bb:-------------------|
Gb:-------------------|
Db:----1--------------|
Ab:-------2---5--4--2-|
Eb:-0---------3--2--0-|


eb:--------------------------------------------|
Bb:--------------------------------------------|
Gb:--------------------------------------------|
Db:-9-----------9-----------9-----------9-10-5-|
Ab:-7--7-7-7-7--7--7-7-7-7--7--7-7-7-7--7-8--7-|
Eb:--------------------------------------------|


eb:----------------|
Bb:----------------|
Gb:----------------|
Db:-4--------------|
Ab:-6--5--4--3--2--|
Eb:----7--6--5--0--|


eb:--------------------------------------------|
Bb:--------------------------------------------|
Gb:--------------------------------------------|
Db:-9-----------9-----------9-----------9-10-9-|
Ab:-7--7-7-7-7--7--7-7-7-7--7--7-7-7-7--7-8--7-|
Eb:--------------------------------------------|


eb:-------------------|
Bb:-------------------|
Gb:-------------------|
Db:----1--------------|
Ab:-------2---5--4--2-|
Eb:-0---------3--2--0-|


eb:--------------------------------------------|
Bb:--------------------------------------------|
Gb:--------------------------------------------|
Db:-9-----------9-----------9-----------9-10-5-|
Ab:-7--7-7-7-7--7--7-7-7-7--7--7-7-7-7--7-8--7-|
Eb:--------------------------------------------|


eb:----------------|
Bb:----------------|
Gb:----------------|
Db:-4--------------|
Ab:-6--5--4--3--2--|
Eb:----7--6--5--0--|


:----------------|
:----------------|
:----------------|
:-9-8--4--12--11-|
:-7-6--2--10--9--|
:----------------|


eb:--------------------------------------------|
Bb:--------------------------------------------|
Gb:--------------------------------------------|
Db:-9-----------9-----------9-----------9-10-9-|
Ab:-7--7-7-7-7--7--7-7-7-7--7--7-7-7-7--7-8--7-|
Eb:--------------------------------------------|

:----------------|
:----------------|
:----------------|
:-9-8--4--12--11-|
:-7-6--2--10--9--|
:----------------|


eb:--------------------------------------------|
Bb:--------------------------------------------|
Gb:--------------------------------------------|
Db:-9-----------9-----------9-----------9-10-9-|
Ab:-7--7-7-7-7--7--7-7-7-7--7--7-7-7-7--7-8--7-|
Eb:--------------------------------------------|

:---------------------|
:---------------------|
:---------------------|
:-9-8--4--12--11--9---|
:-7-6--2--10--9---7---|
:---------------------|


:--------------------------|
:--------------------------|
:--------------------------|
:--------------------------|
:-5---------------6--8--10-|
:-3--3-3-3-3-3-3--4--6--8--|
  
:---------------------------|
:---------------------------|
:---------------------------|
:-----------------7--6ah----|
:-5---------------5--4----5-|
:-3--3-3-3-3-3-3----------7-|
  
:--------------------------|
:--------------------------|
:--------------------------|
:--------------------------|
:-5---------------6--8--10-|
:-3--3-3-3-3-3-3--4--6--8--|
  
:---------------------------|
:---------------------------|
:---------------------------|
:-----------------7--6ah----|
:-5---------------5--4----5-|
:-3--3-3-3-3-3-3----------7-|
  
:--------------------------|
:--------------------------|
:--------------------------|
:--------------------------|
:-5---------------6--8--10-|
:-3--3-3-3-3-3-3--4--6--8--|
  
:---------------------------|
:---------------------------|
:---------------------------|
:-----------------7--6ah----|
:-5---------------5--4----5-|
:-3--3-3-3-3-3-3----------7-|
  

:--------------------------|
:--------------------------|
:--------------------------|
:--------------------------|
:-5---------------6--8--10-|
:-3--3-3-3-3-3-3--4--6--8--|
  

eb:--------------------------------------------|
Bb:--------------------------------------------|
Gb:--------------------------------------------|
Db:-9-----------9-----------9-----------9-10-9-|
Ab:-7--7-7-7-7--7--7-7-7-7--7--7-7-7-7--7-8--7-|
Eb:--------------------------------------------|

eb:------------------------------------------|
Bb:------------------------------------------|
Gb:------------------------------------------|
Db:-9-----------9-----------9-----------9-10-|
Ab:-7--7-7-7-7--7--7-7-7-7--7--7-7-7-7--7-8--|
Eb:------------------------------------------|


:----------------------------------------------|
:----------------------------------------------|
:----------------------------------------------|
:-7----------7----7---------7-----7--------8-7-|
:-5--5-5-5-5-5-5--5-5-5-5-5-5-5-5-5-5-5-5--6-5-|
:----------------------------------------------|

:---------------------------------------------|
:---------------------------------------------|
:---------------------------------------------|
:-7----------7----7---------7-----7--------8--|
:-5--5-5-5-5-5-5--5-5-5-5-5-5-5-5-5-5-5-5--6--|
:---------------------------------------------|

eb:--------------------------------------------|
Bb:--------------------------------------------|
Gb:--------------------------------------------|
Db:-9-----------9-----------9-----------9-10-9-|
Ab:-7--7-7-7-7--7--7-7-7-7--7--7-7-7-7--7-8--7-|
Eb:--------------------------------------------|

eb:------------------------------------------|
Bb:------------------------------------------|
Gb:------------------------------------------|
Db:-9-----------9-----------9-----------9-10-|
Ab:-7--7-7-7-7--7--7-7-7-7--7--7-7-7-7--7-8--|
Eb:------------------------------------------|


:--------------------------|
:--------------------------|
:--------------------------|
:--------------------------|
:-5---------------6--8--10-|
:-3--3-3-3-3-3-3--4--6--8--|


:---------------------------|
:---------------------------|
:---------------------------|
:-----------------7--6ah----|
:-5---------------5--4----5-|
:-3--3-3-3-3-3-3----------7-|
  
:--------------------------|
:--------------------------|
:--------------------------|
:--------------------------|
:-5---------------6--8--10-|
:-3--3-3-3-3-3-3--4--6--8--|
  
:---------------------------|
:---------------------------|
:---------------------------|
:-----------------7--6ah----|
:-5---------------5--4----5-|
:-3--3-3-3-3-3-3----------7-|
  
:--------------------------|
:--------------------------|
:--------------------------|
:--------------------------|
:-5---------------6--8--10-|
:-3--3-3-3-3-3-3--4--6--8--|
  
:---------------------------|
:---------------------------|
:---------------------------|
:-----------------7--6ah----|
:-5---------------5--4----5-|
:-3--3-3-3-3-3-3----------7-|
  

:--------------------------|
:--------------------------|
:--------------------------|
:--------------------------|
:-5---------------6--8--10-|
:-3--3-3-3-3-3-3--4--6--8--|

 
:---------------------------|
:---------------------------|
:---------------------------|
:-----------------7--6ah----|
:-5---------------5--4----5-|
:-3--3-3-3-3-3-3----------7-|
  

:--------------------------|
:--------------------------|
:--------------------------|
:--------------------------|
:-5---------------6--8--10-|
:-3--3-3-3-3-3-3--4--6--8--|


eb:--------------------------------------------|
Bb:--------------------------------------------|
Gb:--------------------------------------------|
Db:-9-----------9-----------9-----------9-10-9-|
Ab:-7--7-7-7-7--7--7-7-7-7--7--7-7-7-7--7-8--7-|
Eb:--------------------------------------------|

eb:------------------------------------------|
Bb:------------------------------------------|
Gb:------------------------------------------|
Db:-9-----------9-----------9-----------9-10-|
Ab:-7--7-7-7-7--7--7-7-7-7--7--7-7-7-7--7-8--|
Eb:------------------------------------------|


:----------------------------------------------|
:----------------------------------------------|
:----------------------------------------------|
:-7----------7----7---------7-----7--------8-7-|
:-5--5-5-5-5-5-5--5-5-5-5-5-5-5-5-5-5-5-5--6-5-|
:----------------------------------------------|

:---------------------------------------------|
:---------------------------------------------|
:---------------------------------------------|
:-7----------7----7---------7-----7--------8--|
:-5--5-5-5-5-5-5--5-5-5-5-5-5-5-5-5-5-5-5--6--|
:---------------------------------------------|


eb:--------------------------------------------|
Bb:--------------------------------------------|
Gb:--------------------------------------------|
Db:-9-----------9-----------9-----------9-10-9-|
Ab:-7--7-7-7-7--7--7-7-7-7--7--7-7-7-7--7-8--7-|
Eb:--------------------------------------------|

eb:------------------------------------------|
Bb:------------------------------------------|
Gb:------------------------------------------|
Db:-9-----------9-----------9-----------9-10-|
Ab:-7--7-7-7-7--7--7-7-7-7--7--7-7-7-7--7-8--|
Eb:------------------------------------------|

:--------------------------|
:--------------------------|
:--------------------------|
:--------------------------|
:-5---------------6--8--10-|
:-3--3-3-3-3-3-3--4--6--8--|


solo                 repeat
:-17bf--17b~~~~-|-14h17p14-14h16p14----|-14h17p14-14h17p14-14h17-14h17p14----14------------|
:---------------|-------------------17-|----------------------------------17----17-14h17p14|
:---------------|----------------------|---------------------------------------------------|
:---------------|----------------------|---------------------------------------------------|
:---------------|----------------------|---------------------------------------------------|
:---------------|----------------------|---------------------------------------------------|

                                     bar/\/\/\/\/\/\/\/\//\/\/\/\/\/\/\/\\/\/\
:------------------------------------18p15-17p15-18p15-17p15-18p15-17p15-18p15-------------|
:--------------15b--15ahb--15b~~~~~--------------------------------------------18b--18b~~~~|
:-16-14-16ahb------------------------------------------------------------------------------|
:------------------------------------------------------------------------------------------|
:------------------------------------------------------------------------------------------|
:------------------------------------------------------------------------------------------|

   repeat                                           repeat                repeat 
:----17h21p17-|----------------------------------|-------------21-|-------------19-------|
:-19----------|-19p17-19p17----------------------|----19----19----|----19----19-------19-|
:-------------|-------------20p18-20p18-20-18-20b|-18----18-------|-18----18-------18----|
:-------------|----------------------------------|----------------|----------------------|
:-------------|----------------------------------|----------------|----------------------|
:-------------|----------------------------------|----------------|----------------------|


:-----------------|
:----19-----------|
:-18----18b~~~~---|
:-----------------|
:-----------------|
:-----------------|


eb:--------------------------------------------|
Bb:--------------------------------------------|
Gb:--------------------------------------------|
Db:-9-----------9-----------9-----------9-10-9-|
Ab:-7--7-7-7-7--7--7-7-7-7--7--7-7-7-7--7-8--7-|
Eb:--------------------------------------------|

eb:------------------------------------------|
Bb:------------------------------------------|
Gb:------------------------------------------|
Db:-9-----------9-----------9-----------9-10-|
Ab:-7--7-7-7-7--7--7-7-7-7--7--7-7-7-7--7-8--|
Eb:------------------------------------------|


:----------------------------------------------|
:----------------------------------------------|
:----------------------------------------------|
:-7----------7----7---------7-----7--------8-7-|
:-5--5-5-5-5-5-5--5-5-5-5-5-5-5-5-5-5-5-5--6-5-|
:----------------------------------------------|

:---------------------------------------------|
:---------------------------------------------|
:---------------------------------------------|
:-7----------7----7---------7-----7--------8--|
:-5--5-5-5-5-5-5--5-5-5-5-5-5-5-5-5-5-5-5--6--|
:---------------------------------------------|


eb:--------------------------------------------|
Bb:--------------------------------------------|
Gb:--------------------------------------------|
Db:-9-----------9-----------9-----------9-10-9-|
Ab:-7--7-7-7-7--7--7-7-7-7--7--7-7-7-7--7-8--7-|
Eb:--------------------------------------------|

eb:------------------------------------------|
Bb:------------------------------------------|
Gb:------------------------------------------|
Db:-9-----------9-----------9-----------9-10-|
Ab:-7--7-7-7-7--7--7-7-7-7--7--7-7-7-7--7-8--|
Eb:------------------------------------------|

:--------------------------|
:--------------------------|
:--------------------------|
:--------------------------|
:-5---------------6--8--10-|
:-3--3-3-3-3-3-3--4--6--8--|


:--------------------------|
:--------------------------|
:--------------------------|
:--------------------------|
:-5---------------6--8--10-|
:-3--3-3-3-3-3-3--4--6--8--|
  
:---------------------------|
:---------------------------|
:---------------------------|
:-----------------7--6ah----|
:-5---------------5--4----5-|
:-3--3-3-3-3-3-3----------7-|
  
:--------------------------|
:--------------------------|
:--------------------------|
:--------------------------|
:-5---------------6--8--10-|
:-3--3-3-3-3-3-3--4--6--8--|
  

:---------------------------|
:---------------------------|
:---------------------------|
:-----------------7--6ah----|
:-5---------------5--4----5-|
:-3--3-3-3-3-3-3----------7-|
  
:--------------------------|
:--------------------------|
:--------------------------|
:--------------------------|
:-5---------------6--8--10-|
:-3--3-3-3-3-3-3--4--6--8--|
  
:---------------------------|
:---------------------------|
:---------------------------|
:-----------------7--6ah----|
:-5---------------5--4----5-|
:-3--3-3-3-3-3-3----------7-|
  

:--------------------------|
:--------------------------|
:--------------------------|
:--------------------------|
:-5---------------6--8--10-|
:-3--3-3-3-3-3-3--4--6--8--|
  

eb:--------------------------------------------|
Bb:--------------------------------------------|
Gb:--------------------------------------------|
Db:-9-----------9-----------9-----------9-10-9-|
Ab:-7--7-7-7-7--7--7-7-7-7--7--7-7-7-7--7-8--7-|
Eb:--------------------------------------------|

eb:------------------------------------------|
Bb:------------------------------------------|
Gb:------------------------------------------|
Db:-9-----------9-----------9-----------9-10-|
Ab:-7--7-7-7-7--7--7-7-7-7--7--7-7-7-7--7-8--|
Eb:------------------------------------------|


:----------------------------------------------|
:----------------------------------------------|
:----------------------------------------------|
:-7----------7----7---------7-----7--------8-7-|
:-5--5-5-5-5-5-5--5-5-5-5-5-5-5-5-5-5-5-5--6-5-|
:----------------------------------------------|

:---------------------------------------------|
:---------------------------------------------|
:---------------------------------------------|
:-7----------7----7---------7-----7--------8--|
:-5--5-5-5-5-5-5--5-5-5-5-5-5-5-5-5-5-5-5--6--|
:---------------------------------------------|


eb:--------------------------------------------|
Bb:--------------------------------------------|
Gb:--------------------------------------------|
Db:-9-----------9-----------9-----------9-10-9-|
Ab:-7--7-7-7-7--7--7-7-7-7--7--7-7-7-7--7-8--7-|
Eb:--------------------------------------------|

eb:------------------------------------------|
Bb:------------------------------------------|
Gb:------------------------------------------|
Db:-9-----------9-----------9-----------9-10-|
Ab:-7--7-7-7-7--7--7-7-7-7--7--7-7-7-7--7-8--|
Eb:------------------------------------------|


eb:----------------------------------------|
Bb:----------------------------------------|
Gb:----------------------------------------|
Db:----------------------------------------|
Ab:-2-2-2-2-2-2--3-3-3-3--2-2-2-2-2-2--5-4-|
Eb:-0-0-0-0-0-0--1-1-1-1--0-0-0-0-0-0--3-2-|


eb:------------------------------------------------|
Bb:------------------------------------------------|
Gb:------------------------------------------------|
Db:------------------------------------------------|
Ab:-2-2-2-2-2-2--3-3-3-3--6-6-6-6-6----------------|
Eb:-0-0-0-0-0-0--1-1-1-1--4-4-4-4-4--3-2-0--2-1-0--|

        repeat
eb:---------------------|
Bb:---------------------|
Gb:---------------------|
Db:-4----4----4----6----|
Ab:-6----6----6----4----|
Eb:---7\---7\---7\---7\-|


eb:-------|
Bb:-------|
Gb:-------|
Db:-4--6--|
Ab:-6--4--|
Eb:-------|
Suggest correction
Give kudos to tab author, rate the tab!
1 2 3 4 5
comments
print report bad tab
guest
You may want to rate the tab now too:
select rating
Wanna post a correction for this tab? Suggest correction