Oops, an error
Loading. Please wait.

El Llamado De La Mujer Tab

155 views 1 this week
no commentswrite comment
1 2 3 4 5
3 more votes to show rating
add to favorites
×
Save as Personal and add changes to this tab that will be seen only by you. Learn more ›
launch autoscroll
font size
0
reset
how to read this tab
guitar tuner
Autoscroll
slow
fast
+/-
esc
set tempo
stop
transcribed by Rudy Guzman
guzman_84@


   . = palm mute
   / = slide up
   \ = slide down
   ~ = vibrato
   h = hammer on
   p = pull off
  fb = full bend
  hb = half bend
 fbr = full bend then release
 hbr = half bend then release
(17) = ghost note


tune down 3 steps 
           
Eb|---------------------------|
Bb|---------------------------|
F#|---------------------------|
C#|---------------------------|
G#|-2--3--3-5---10-9--5--2----|
C#|-0--1--1-3---8--7--3--0----|

Eb|-------------------------------------------------------------------|
Bb|-------------------------------------------------------------------|
F#|-------------------------------------------------------------------|
C#|-8/9-9-9-9-9-9-9-9-9-8/9-9-9-9-9-9-9-9-9--8/9-9-9-9-9-9-9-9-9--7-5-|
G#|-6/7-7-7-7-7-7-7-7-7-6/7-7-7-7-7-7-7-7-7--6/7-7-7-7-7-7-7-7-7--5-3-|
C#|-------------------------------------------------------------------|

Eb|---------------------------------------------------------------21b-|
Bb|-------------------------------------------------------------------|
F#|-------------------------------------------------------------------|
C#|-8/9-9-9-9-9-9-9-9-9-8/9-9-9-9-9-9-9-9-9--8/9-9-9-9-9-9-9-9-9------|
G#|-6/7-7-7-7-7-7-7-7-7-6/7-7-7-7-7-7-7-7-7--6/7-7-7-7-7-7-7-7-7------|
C#|-------------------------------------------------------------------|

Eb|---------------------------------------------------------------------14-|
Bb|------------------------------------------------------------------------|
F#|---------------------------------------------------------------14h16----|
C#|-8/9-9-9-9-9-9-9-9-9-8/9-9-9-9-9-9-9-9-9--8/9-9-9-9-9-9-9-9-9-----------|
G#|-6/7-7-7-7-7-7-7-7-7-6/7-7-7-7-7-7-7-7-7--6/7-7-7-7-7-7-7-7-7-----------|
C#|------------------------------------------------------------------------|

Eb|-------------------------------------------------------------------|
Bb|-------------------------------------------------------------------|
F#|-------------------------------------------------------------------|
C#|-8/9-9-9-9-9-9-9-9-9-8/9-9-9-9-9-9-9-9-9--8/9-9-9-9-9-9-9-9-9--7-5-|
G#|-6/7-7-7-7-7-7-7-7-7-6/7-7-7-7-7-7-7-7-7--6/7-7-7-7-7-7-7-7-7--5-3-|
C#|-------------------------------------------------------------------|

Eb|---------------------------|
Bb|---------------------------|
F#|---------------------------|
C#|---------------------------|
G#|-2--3--3-5---10-9--5--2----|
C#|-0--1--1-3---8--7--3--0----|

Eb|-21~~~~~--|
Bb|----------|
F#|----------|
C#|----------|
G#|----------|
C#|----------|

Eb|-------------------------------------------------------------------|
Bb|-------------------------------------------------------------------|
F#|-------------------------------------------------------------------|
C#|-8/9-9-9-9-9-9-9-9-9-8/9-9-9-9-9-9-9-9-9--8/9-9-9-9-9-9-9-9-9--7-5-|
G#|-6/7-7-7-7-7-7-7-7-7-6/7-7-7-7-7-7-7-7-7--6/7-7-7-7-7-7-7-7-7--5-3-|
C#|-------------------------------------------------------------------|

Eb|-------------------------------------------------------------------|
Bb|-------------------------------------------------------------------|
F#|---------------------------------------------------------------7ah-|
C#|-8/9-9-9-9-9-9-9-9-9-8/9-9-9-9-9-9-9-9-9--8/9-9-9-9-9-9-9-9-9------|
G#|-6/7-7-7-7-7-7-7-7-7-6/7-7-7-7-7-7-7-7-7--6/7-7-7-7-7-7-7-7-7------|
C#|-------------------------------------------------------------------|
                                                                   bar\/\/\/
Eb|----------------------------------------------------------------5nh-----|
Bb|------------------------------------------------------------------------|
F#|------------------------------------------------------------------------|
C#|-8/9-9-9-9-9-9-9-9-9-8/9-9-9-9-9-9-9-9-9--8/9-9-9-9-9-9-9-9-9-----------|
G#|-6/7-7-7-7-7-7-7-7-7-6/7-7-7-7-7-7-7-7-7--6/7-7-7-7-7-7-7-7-7-----------|
C#|------------------------------------------------------------------------|

Eb|---------------------------------------------------------------------14-|
Bb|------------------------------------------------------------------------|
F#|---------------------------------------------------------------14h16----|
C#|-8/9-9-9-9-9-9-9-9-9-8/9-9-9-9-9-9-9-9-9--8/9-9-9-9-9-9-9-9-9-----------|
G#|-6/7-7-7-7-7-7-7-7-7-6/7-7-7-7-7-7-7-7-7--6/7-7-7-7-7-7-7-7-7-----------|
C#|------------------------------------------------------------------------|

Eb|-------------------------------------------------------------------|
Bb|-------------------------------------------------------------------|
F#|-------------------------------------------------------------------|
C#|-8/9-9-9-9-9-9-9-9-9-8/9-9-9-9-9-9-9-9-9--8/9-9-9-9-9-9-9-9-9--7-5-|
G#|-6/7-7-7-7-7-7-7-7-7-6/7-7-7-7-7-7-7-7-7--6/7-7-7-7-7-7-7-7-7--5-3-|
C#|-------------------------------------------------------------------|

pm..................................
Eb|---------------------------------------------|
Bb|---------------------------------------------|
F#|---------------------------------------------|
C#|---------------------------------------------|
G#|---------------------------------------------|
C#|-0-0--3-0-5-0-6-0-7-0-8-0-9-0-10-0-11~~~~~~--|

solo                                                                      ----------------
Eb|----------------------------------------------------------------------/-----------------|
Bb|-----------------------------------------------------------------10bf/-10-10101010101010|
F#|-4ah~~~~--------------------------------------------------------------------------------|
C#|---------4h6p4h6p4h6p4h6p4h6/14bf~~~~~--14b-12-14-12-12-14-12-12b-----------------------|
G#|----------------------------------------------------------------------------------------|
C#|----------------------------------------------------------------------------------------|
                              bar/\/\/\/\ \/\/\/\/\/\  /\/\/\/\
Eb|----------------------------------------------------------------------------------------|
Bb|10ah-10-9-7-10-9-7-----7----------------------------------------------------------------|
F#|------------------10-9---9-7~~~~-------10/~~~~~~~---/12-------10-9-7--6h7p6---6-----6h76|
C#|----------------------------------------------------------------------------9---7-9-----|
G#|----------------------------------------------------------------------------------------|
C#|----------------------------------------------------------------------------------------|
                        bar\/\/\/\/\/\/\                            repeat
Eb|------------------------------------------------------------|-15p12-15p12---|----12----|
Bb|--------------10b-9--9-----(9)---------8-8-8-8--10-10-10-10-|-------------15|-15----15-|
F#|---6-7ah~~~~------------------------------------------------|---------------|----------|
C#|-9----------------------------------------------------------|---------------|----------|
G#|------------------------------------------------------------|---------------|----------|
C#|------------------------------------------------------------|---------------|----------|

Eb|----------------------------------------------------------------------------------------|
Bb|-12h15p12----12-----------------------12--12-12-12-12-12-12-12--12-14-12----12----------|
F#|----------14----14-12-14-12--12ah~~~-------------------------------------14----14-11-12b|
C#|----------------------------------------------------------------------------------------|
G#|----------------------------------------------------------------------------------------|
C#|----------------------------------------------------------------------------------------|

  pm...................................               repeat
Eb|----------------------------------------------|-18p15-18p15----|----------------------|
Bb|----------------------------------------------|-------------18-|-18p15-18p15----18p15-|
F#|-10-11-10----------------------------10ah~~~~-|----------------|-------------17-------|
C#|----------12-10----------------10-12----------|----------------|----------------------|
G#|----------------12-10----10-12----------------|----------------|----------------------|
C#|----------------------13----------------------|----------------|----------------------|

                                                                                ------------
Eb|----------------------------------------------------------------------------/-----------|
Bb|-18p15----18p15-18p15-18p15h18p15h18p15h18p15--------------------------16bf/-16-16-16-16|
F#|-------17--------------------------------------17p15-17p15-17p15-17p15------------------|
C#|----------------------------------------------------------------------------------------|
G#|----------------------------------------------------------------------------------------|
C#|----------------------------------------------------------------------------------------|

Eb|----------------------------------------------------------------------------------------|
Bb|-16-16--14h16p14------------------------------------------------------------------------|
F#|-----------------16-14-16-14-16ah--14h16p14-12h14p12--10h12p12-9h10p9-7h9p7-5h7p5-4h5p4-|
C#|----------------------------------------------------------------------------------------|
G#|----------------------------------------------------------------------------------------|
C#|----------------------------------------------------------------------------------------|

Eb|------------------------|
Bb|------------------------|
F#|-2h4p2--0h2p0--0--------|
C#|------------------------|
G#|------------------------|
C#|------------------------|

Eb|-------------------------------------------------------------------|
Bb|-------------------------------------------------------------------|
F#|-------------------------------------------------------------------|
C#|-8/9-9-9-9-9-9-9-9-9-8/9-9-9-9-9-9-9-9-9--8/9-9-9-9-9-9-9-9-9--7-5-|
G#|-6/7-7-7-7-7-7-7-7-7-6/7-7-7-7-7-7-7-7-7--6/7-7-7-7-7-7-7-7-7--5-3-|
C#|-------------------------------------------------------------------|

Eb|-------------------------------------------------------------------|
Bb|-------------------------------------------------------------------|
F#|---------------------------------------------------------------7ah-|
C#|-8/9-9-9-9-9-9-9-9-9-8/9-9-9-9-9-9-9-9-9--8/9-9-9-9-9-9-9-9-9------|
G#|-6/7-7-7-7-7-7-7-7-7-6/7-7-7-7-7-7-7-7-7--6/7-7-7-7-7-7-7-7-7------|
C#|-------------------------------------------------------------------|
                                                                   bar\/\/\/
Eb|----------------------------------------------------------------5nh-----|
Bb|------------------------------------------------------------------------|
F#|------------------------------------------------------------------------|
C#|-8/9-9-9-9-9-9-9-9-9-8/9-9-9-9-9-9-9-9-9--8/9-9-9-9-9-9-9-9-9-----------|
G#|-6/7-7-7-7-7-7-7-7-7-6/7-7-7-7-7-7-7-7-7--6/7-7-7-7-7-7-7-7-7-----------|
C#|------------------------------------------------------------------------|

Eb|---------------------------------------------------------------------14-|
Bb|------------------------------------------------------------------------|
F#|---------------------------------------------------------------14h16----|
C#|-8/9-9-9-9-9-9-9-9-9-8/9-9-9-9-9-9-9-9-9--8/9-9-9-9-9-9-9-9-9-----------|
G#|-6/7-7-7-7-7-7-7-7-7-6/7-7-7-7-7-7-7-7-7--6/7-7-7-7-7-7-7-7-7-----------|
C#|------------------------------------------------------------------------|

Eb|-------------------------------------------------------------------|
Bb|-------------------------------------------------------------------|
F#|-------------------------------------------------------------------|
C#|-8/9-9-9-9-9-9-9-9-9-8/9-9-9-9-9-9-9-9-9--8/9-9-9-9-9-9-9-9-9--7-5-|
G#|-6/7-7-7-7-7-7-7-7-7-6/7-7-7-7-7-7-7-7-7--6/7-7-7-7-7-7-7-7-7--5-3-|
C#|-------------------------------------------------------------------|

made in hermosillo son.
Suggest correction
Give kudos to tab author, rate the tab!
1 2 3 4 5
comments
print report bad tab
guest
You may want to rate the tab now too:
select rating
Wanna post a correction for this tab? Suggest correction