Oops, an error
Loading. Please wait.

El Mito De La Sangre Tab

141 views 1 this week
no commentswrite comment
1 2 3 4 5
3 more votes to show rating
add to favorites
launch autoscroll
font size
0
reset
how to read this tab
guitar tuner
Autoscroll
slow
fast
+/-
esc
set tempo
stop
¡¡¡¡¡¡¡¡¡¡¡Me agregan a su facebook!!!!!!!!!

C#|-------------------------------------------------
G#|-------------------------------------------------
 E|-------------------------------------------------
 B|-------------------------------------------------
F#|-2-22-22-22-22-22-------2-22-22-22-22-22-----5---
C#|-0-00-00-00-00-00-5b~-3--0-00-00-00-00-00-5b~----

C#|-------------------------------------------------
G#|-------------------------------------------------
 E|-------------------------------------------------
 B|-------------------------------------------------
F#|------------------6b~5b~--5b~4b~-----------------
C#|-0-00-00-00-00-00--------------------------------

C#|---------------------------
G#|---------------------------
 E|---------------------------
 B|---------------------------
F#|----3b----5b----3b----1b---
C#|-000---000---000---000-----

TIEMPO-1:43
C#|-------------------------------------------------
G#|-------------------------------------------------
 E|-------------------------------------------------
 B|-----------3-5/6-5-3-----------------------------
F#|-------3-5-----------5-3--------3-5-5-3----------
C#|-0-3-5--------------------0-3-5---------5--------

C#|----------------------
G#|----------------------
 E|----------------------
 B|----------------------
F#|-3-33/6-66-3-343-1----
C#|----------------------

*BAJO Y BATERIA

C#|-------------------------------------------------
G#|-------------------------------------------------
 E|-------------------------------------------------
 B|-------------------------------------------------
F#|-222222222222222444444-222222222222222288888-----
C#|-000000000000000222222-000000000000000066666-----

C#|----------------------------------------------
G#|----------------------------------------------
 E|----------------------------------------------
 B|----------------------------------------------
F#|-22222222222222244444-2222222222222222-8-7----
C#|-00000000000000022222-0000000000000000-6-5----

C#|-------------------------------------------------
G#|-------------------------------------------------
 E|-------------------------------------------------
 B|-------------------------------------------------
F#|-2-22-22-22-22-22-------2-22-22-22-22-22-----5---
C#|-0-00-00-00-00-00-5b~-3--0-00-00-00-00-00-5b~----

C#|-------------------------------------------------
G#|-------------------------------------------------
 E|-------------------------------------------------
 B|-------------------------------------------------
F#|------------------6b~5b~--5b~4b~-----------------
C#|-0-00-00-00-00-00--------------------------------

C#|---------------------------
G#|---------------------------
 E|---------------------------
 B|---------------------------
F#|----3b----5b----3b----1b---
C#|-000---000---000---000-----

C#|-------------------------------------------------
G#|-------------------------------------------------
 E|-------------------------------------------------
 B|-----------3-5/6-5-3-----------------------------
F#|-------3-5-----------5-3--------3-5-5-3----------
C#|-0-3-5--------------------0-3-5---------5--------

ahuevo chicharron con pelos........ -FERCH-..
Suggest correction
Give kudos to tab author, rate the tab!
1 2 3 4 5
comments
print report bad tab
guest
You may want to rate the tab now too:
select rating
Wanna post a correction for this tab? Suggest correction