Oops, an error
Loading. Please wait.

El Ultimo Dia De Sombra Tab

19 views 1 this week
no commentswrite comment
1 2 3 4 5
3 more votes to show rating
add to favorites
launch autoscroll
font size
0
reset
how to read this tab
guitar tuner
×
Best way to learn
"El Ultimo Dia De Sombra"
Autoscroll
slow
fast
+/-
esc
set tempo
stop
TRANSCRIBED BY RUDY GUZMAN
guzman_84@

:-------------2-------------------3-------------------2-----------------2-|
:-------3-------3------------3------2------------3------3-----------3-----|
:---------4-------4--------2---2------3------------4------4-------2---2---|
:----4-----------------------------------0-----4--------------------------|
:--2-----------------2--0--------------------2---------------0-2----------|
:-------------------------------------------------------------------------|

eb:----------2---------------2-------|
Bb:-----3------3---------3-----3-----|
Gb:---2---2------2-----2---2-----2---|
Db:-4--------------4-2-------------2-|
Ab:----------------------------------|
Eb:----------------------------------|

:-------------2-------------------3-------------------2-----------------2-|
:-------3-------3------------3------2------------3------3-----------3-----|
:---------4-------4--------2---2------3------------4------4-------2---2---|
:----4-----------------------------------0-----4--------------------------|
:--2-----------------2--0--------------------2---------------0-2----------|
:-------------------------------------------------------------------------|

eb:----------------------------------------|
Bb:------8-7-7-8-7-----------8-7-7-8-7-----|
Gb:----------------9-------------------9---|
Db:---9--------------9-----9-------------9-|
Ab:-7------------------7-7-----------------|
Eb:----------------------------------------|

:--------------------------------------------------|
:----------8-7-7-8-7---------------8-7-7-8-7-------|
:--------------------9-----------------------9-----|
:-------9--------------9---------9-------------9---|
:-----7------------------7-----7-----------------7-|
:-7-8----------------------7-8---------------------|

eb:----------------------------------------|
Bb:------8-7-7-8-7-----------8-7-7-8-7-----|
Gb:----------------9-------------------9---|
Db:---9--------------9-----9-------------9-|
Ab:-7------------------7-7-----------------|
Eb:----------------------------------------|

:------------------------------------------------------|
:----------8-7-7-8-7---------------8-7-7-8-7--------8--|
:--------------------9-----------------------9------9--|
:-------9--------------9---------9-------------9----9--|
:-----7------------------7-----7-----------------7--7--|
:-7-8----------------------7-8-------------------------|


eb:----------------------------------------------------------------------------------|
Bb:------8-7-7-8-7-------------8-7-7-8-7---------------7-7------------7-7---------8--|
Gb:----------------9---------------------7-----------7-----9--------7-----9-------9--|
Db:---9--------------9-------7-------------9-------7---------9----7---------9-----9--|
Ab:-7------------------7--10-----------------10--9--------------8-------------8---7--|
Eb:----------------------------------------------------------------------------------|


eb:----------------------------------------|
Bb:------8-7-7-8-7-----------8-7-7-8-7-----|
Gb:----------------9-------------------9---|
Db:---9--------------9-----9-------------9-|
Ab:-7------------------7-7-----------------|
Eb:----------------------------------------|

:--------------------------------------------------|
:----------8-7-7-8-7---------------8-7-7-8-7-------|
:--------------------9-----------------------9-----|
:-------9--------------9---------9-------------9---|
:-----7------------------7-----7-----------------7-|
:-7-8----------------------7-8---------------------|

eb:----------------------------------------|
Bb:------8-7-7-8-7-----------8-7-7-8-7-----|
Gb:----------------9-------------------9---|
Db:---9--------------9-----9-------------9-|
Ab:-7------------------7-7-----------------|
Eb:----------------------------------------|

:------------------------------------------------------|
:----------8-7-7-8-7---------------8-7-7-8-7--------8--|
:--------------------9-----------------------9------9--|
:-------9--------------9---------9-------------9----9--|
:-----7------------------7-----7-----------------7--7--|
:-7-8----------------------7-8-------------------------|

#-----------------------------PLEASE NOTE-------------------------------------#
#This OLGA file is the author's own work and represents their interpretation  #
#of the song. You may only use this file for private study, scholarship, or   #
#research. Remember to view this file in Courier, or some other monospaced    #
#font. See  for more information.                     #
#-----------------------------------------------------------------------------#


titus

song: titus theme

transcribed by Rudy Guzman

guzman_84@


   . = palm mute
   / = slide up
   \ = slide down
   ~ = vibrato
   h = hammer on
   p = pull off
  fb = full bend
  hb = half bend
 fbr = full bend then release
 hbr = half bend then release
(17) = ghost note


eb:----------------------------------------------------------------------------------------|
Bb:-----------------------------------3-----------------------------------------------3----|
Gb:----0--2--2-0-2-0--------0--2--2/4---4\2-0----------0-2--2-0-2-0----------0-2--2/4---4\2|
Db:-2--0--2--2-0-2-0-2-0-2--0--2---------------2-0--2--0-2--2-0-2-0--2-0--2--0-2-----------|
Ab:-2----------------2-0-2--------------------------2----------------2-0--2----------------|
Eb:----------------------------------------------------------------------------------------|

eb:--------------------------------------------------------------3-0-3-0---------|
Bb:-----------------------------------------------------------------------3b-0---|
Gb:-0------2-2-----------0-2--0-2-0--2b-2-0----2-2-----------0-0-----------------|
Db:---2-0--2-2-----------0-2--0-2-0---------2--2-2-----------0-0-----------------|
Ab:------------0-0-0-0-0---------------------------0-0-0-0-0---------------------|
Eb:------------------------------------------------------------------------------|


eb:----------------------------------------|
Bb:----------------------------------------|
Gb:----0--2--2-0-2-0--------0--2--0-2------|
Db:-2--0--2--2-0-2-0-2-0-2--0--2--0-2---2--|
Ab:-2----------------2-0-2--------------2--|
Eb:-------------------------------------0--|
Suggest correction
Give kudos to tab author, rate the tab!
1 2 3 4 5
comments
print report bad tab
guest
You may want to rate the tab now too:
select rating
Wanna post a correction for this tab? Suggest correction