Oops, an error
Loading. Please wait.

Enviado Del Infierno Tab

version 2
version 2

Whole song

98 views 1 this week
no commentswrite comment
1 2 3 4 5
3 more votes to show rating
add to favorites
launch autoscroll
font size
0
reset
how to read this tab
guitar tuner
×
Best way to learn
"Enviado Del Infierno"
Autoscroll
slow
fast
+/-
esc
set tempo
stop
TRANSCRIBED BY RUDY GUZMAN
guzman_84@

solo 1
e:-12-15p14p12----12-15p14p12----12-15p14p12----12-15p14p12----12-15p14p12----12-15p14p12--|
B:-------------15-------------15-------------15-------------15-------------15------------15|
G:-----------------------------------------------------------------------------------------|
D:-----------------------------------------------------------------------------------------|
A:-----------------------------------------------------------------------------------------|
E:-----------------------------------------------------------------------------------------|

                            Bar\/\/\/\/\/\/\
e:------------------------14~~~~~~------------19-16----------18----------19----------------|
B:-12-15B-14B--14ah~~~~~----------------------------19-16-19----19-16-19----19-16h19p16-19-|
G:-----------------------------------------------------------------------------------------|
D:-----------------------------------------------------------------------------------------|
A:-----------------------------------------------------------------------------------------|
E:-----------------------------------------------------------------------------------------|
     repeat
e:-16h19p16----|------17-20p19p17-19p18p16-18p17p15-17p16p14-15p14p12-14p13p11-12p11p9-|
B:----------18-|-18\-------------------------------------------------------------------|
G:-------------|-----------------------------------------------------------------------|
D:-------------|-----------------------------------------------------------------------|
A:-------------|-----------------------------------------------------------------------|
E:-------------|-----------------------------------------------------------------------|
                                        Bar
:-10p9p7-9p8p6-8p7p5-7p5p4-------------------|
:--------------------------------------------|
:---------------------------2B~~~--0ah--2ah--|
:--------------------------------------------|
:--------------------------------------------|
:--------------------------------------------|

solo 2
e:----------------------------------------------------------------------------------------|
B:----------------------------------------------------------------------------------------|
G:-------------------------------------------------------------------------------------13-|
D:-12-12-12-12-15p14p12--12-12-12-15p12--12-12-12-15p14p12--12-12-12-14-14-14-17p16p14----|
A:----------------------------------------------------------------------------------------|
E:----------------------------------------------------------------------------------------|
                                                          repeat
e:----------------------------------------------------|-------------|----------------------|
B:----------------------------------14-14-14-17p16p14-|----14h17p14-|-17~~~~~-17ah-17~~-16~|
G:-13-13-16p15p13-14-14-14-17p16p14-------------------|-16----------|----------------------|
D:----------------------------------------------------|-------------|----------------------|
A:----------------------------------------------------|-------------|----------------------|
E:----------------------------------------------------|-------------|----------------------|

:---------17-17-17-17-18-18-18-18-------------------------16h19p16----16-------------------|
:---------------------------------20-20-20-20-19-19-19-19----------18----18p16-16h18p16----|
:-18~~~~~-------------------------------------------------------------------------------18-|
:------------------------------------------------------------------------------------------|
:------------------------------------------------------------------------------------------|
:------------------------------------------------------------------------------------------|

e:-----------------------------------------------------------10h12p10---10-----------------|
B:-17p16-16h19p16----16---------------------12B----12B----------------13---13--10h13~~-----|
G:----------------18----18-16h18p16----16---12B----12B--12B----------------------------/16~|
D:----------------------------------18-----------------------------------------------------|
A:-----------------------------------------------------------------------------------------|
E:-----------------------------------------------------------------------------------------|


solo 3
e:--------------------------------------------------------------19B~~~--19Bf~~~~-21p20p18-|
B:-12B--12B~~~~~---17B~~~-15-17B~~~--20p18----18-19B~~-19-18-19---------------------------|
G:-----------------------------------------19---------------------------------------------|
D:----------------------------------------------------------------------------------------|
A:----------------------------------------------------------------------------------------|
E:----------------------------------------------------------------------------------------|

                                repeat                            repeat         repeat
e:-20p19p17-19p18p16-19p16-|-19p16h19p16h19p16-|-----17h20p17-|----17h20p17-|----15h18p15-|
B:-------------------------|-------------------|-/19----------|-19----------|-17----------|
G:-------------------------|-------------------|--------------|-------------|-------------|
D:-------------------------|-------------------|--------------|-------------|-------------|
A:-------------------------|-------------------|--------------|-------------|-------------|
E:-------------------------|-------------------|--------------|-------------|-------------|

:----12h15p12----11h14p11----9h12p9---7h10p7-----------------------/22B~~~~~---18B-18B-18B-|
:-14----------13----------11--------9--------9-7h10p7--------------------------------------|
:------------------------------------------------------9-7---0ah---------------------------|
:------------------------------------------------------------------------------------------|
:------------------------------------------------------------------------------------------|
:------------------------------------------------------------------------------------------|


e:-18B-18B-18B~~~~~~------|
B:------------------------|
G:------------------------|
D:------------------------|
A:------------------------|
E:------------------------|


#-----------------------------PLEASE NOTE-------------------------------------#
#This OLGA file is the author's own work and represents their interpretation  #
#of the song. You may only use this file for private study, scholarship, or   #
#research. Remember to view this file in Courier, or some other monospaced    #
#font. See  for more information.                     #
#-----------------------------------------------------------------------------#


Metallica

album: st. anger

song: st. anger

transcribed by Rudy Guzman

guzman_84@


   . = palm mute
   / = slide up
   \ = slide down
   ~ = vibrato
   h = hammer on
   p = pull off
  fb = full bend
  hb = half bend
 fbr = full bend then release
 hbr = half bend then release
(17) = ghost note


tune down 3 steps 
           
Eb|-------------------------------------------------------|
Bb|-------------------------------------------------------|
F#|-------------------------------------------------------|
C#|-------------------------------------------------------|
G#|-x-x--x-x--x-x--x-x--x-x--x-x--x-x--x-x--x-x--x-x--x-x-|
C#|-x-x--x-x--x-x--x-x--x-x--x-x--x-x--x-x--x-x--x-x--x-x-|

Eb|-----------------------------------------------------------|
Bb|-----------------------------------------------------------|
F#|-----------------------------------------------------------|
C#|-----------------------------------------------------------|
G#|-----------------------------x-x--x-x--x-x--x-x--x-x--x-x--|
C#|-3-1-0--2-1-0--1-0-0--3-1-0--x-x--x-x--x-x--x-x--x-x--x-x--|


Eb|---------------------------------------------|
Bb|---------------------------------------------|
F#|---------------------------------------------|
C#|---------------------------------------------|
G#|---------------x-x--x-x--x-x--x-x--x-x--x-x--|
C#|-3-1-0--2-1-0--x-x--x-x--x-x--x-x--x-x--x-x--|


Eb|---------------------------------------------|
Bb|---------------------------------------------|
F#|---------------------------------------------|
C#|---------------------------------------------|
G#|---------------x-x--x-x--x-x--x-x--x-x--x-x--|
C#|-3-1-0--2-1-0--x-x--x-x--x-x--x-x--x-x--x-x--|

Eb|---------------------------------------------|
Bb|---------------------------------------------|
F#|---------------------------------------------|
C#|------------------------------------11-11-11-|
G#|-----------------------------10-9-8----------|
C#|-3-1-0--2-1-0--1-0-0--3-1-0------------------|

Eb|--------------------------------------|
Bb|--------------------------------------|
F#|--------------------------------------|
C#|-----------------------------11-11-11-|
G#|-----------------------------9--9--9--|
C#|-3-1-0--2-1-0--1-0-0--3-1-0-----------|

Eb|------------------------------------|
Bb|------------------------------------|
F#|------------------------------------|
C#|---------------------------11-11-11-|
G#|---------------------------9--9--9--|
C#|-0-000-000-000-000-000-000----------|


Eb|-----------------------------------|
Bb|-----------------------------------|
F#|-----------------------------------|
C#|-----------------------------------|
G#|-----------------------------------|
C#|-3-1-0--2-1-0--1-0-0--3-1-0--2-0-0-|

verse
Eb|--------------------------------------------------------------------------------|
Bb|-------8----8---------6---------4------------8------8--------6---------4--------|
F#|-----8--------8---------6---------4------------8------8--------6---------4------|
C#|---8------8---------6---------4-----4/8----8------8--------6---------4------4/8-|
G#|-6----------------4---------2------------6---------------4---------2------------|
C#|--------------------------------------------------------------------------------|

Eb|-----------------------------------------|
Bb|------8------8--------6---------4--------|
F#|--------8------8--------6---------4------|
C#|----8------8--------6---------4------4/8-|
G#|--6---------------4---------2------------|
C#|-----------------------------------------|

Gt1
Eb|-------------------------------------------------------------------------------|
Bb|-------------------------------------------------------------------------------|
F#|-------------------------------------------------------------------------------|
C#|-8-8-8-8-8-8-8-8-8-8-8-8-8-8-8--11-11-11-11-11-11-11-11-11-9-9-9-9-9-9-9-9-9-9-|
G#|-6-6-6-6-6-6-6-6-6-6-6-6-6-6-6--9--9--9--9--9--9--9--9--9--7-7-7-7-7-7-7-7-7-7-|
C#|-------------------------------------------------------------------------------|
Gt2
Eb|----------------------------------------------------------------------------------------|
Bb|-16-16-16-16-16-16-16-16-16-16--13-13-13-13-13-13-13-13-13-12-12-12-12-12-12-12-11-11-12|
F#|-15-15-15-15-15-15-15-15-15-15--12-12-12-12-12-12-12-12-12-11-11-11-11-11-11-11-10-10-11|
C#|----------------------------------------------------------------------------------------|
G#|----------------------------------------------------------------------------------------|
C#|----------------------------------------------------------------------------------------|

Eb|-----------------------------------------|
Bb|-16-16-16-16-16-16-16-16-16-16-----------|
F#|-15-15-15-15-15-15-15-15-15-15-----------|
C#|-----------------------------------------|
G#|--------------------------------2-2--2-2-|
C#|--------------------------------0-0--0-0-|

Eb|--------------|
Bb|--------------|
F#|--------------|
C#|-11---9---8---|
G#|-9----7---6---|
C#|--------------|

Eb|----------------------------------------------------------------------------------------|
Bb|----------------------------------------------------------------------------------------|
F#|----------------------------------------------------------------------------------------|
C#|-13-13-13-13-13-13-13-13-13-13-13--11-11-11-11-11-11-11-11--9-9-9-9-9-9-9-9-9-9--8-8-9-9|
G#|-11-11-11-11-11-11-11-11-11-11-11--9--9--9--9--9--9--9--9---7-7-7-7-7-7-7-7-7-7--6-6-7-7|
C#|----------------------------------------------------------------------------------------|

Gt2
Eb|----------------------------------------------------------------------------------------|
Bb|-16-16-16-16-16-16-16-16-16-16--13-13-13-13-13-13-13-13-13-12-12-12-12-12-12-12-11-11-12|
F#|-15-15-15-15-15-15-15-15-15-15--12-12-12-12-12-12-12-12-12-11-11-11-11-11-11-11-10-10-11|
C#|----------------------------------------------------------------------------------------|
G#|----------------------------------------------------------------------------------------|
C#|----------------------------------------------------------------------------------------|

Eb|------------------------------------------------------|
Bb|-16-16-16-16-16-16-16-16-16-16------------------------|
F#|-15-15-15-15-15-15-15-15-15-15------------------------|
C#|------------------------------------------------------|
G#|--------------------------------2-2--2-2--2-2--2-2--2-|
C#|--------------------------------0-0--0-0--0-0--0-0--0-|

Eb|-------------------------------|
Bb|-------------------------------|
F#|-------------------------------|
C#|-------------------------4-4-4-|
G#|---------3-----3---------2-2-2-|
C#|-0-0-0-0-1-0-0-1-0-0-0-0-------|

Eb|-----------------------------------|
Bb|-----------------------------------|
F#|-----------------------------------|
C#|-----------------------------4-4-4-|
G#|-----------------------------2-2-2-|
C#|-3-1-0--2-1-0--1-0-0--3-1-0--------|


Eb|-----------------------------------|
Bb|-----------------------------------|
F#|-----------------------------------|
C#|-----------------------------------|
G#|-----------------------------------|
C#|-3-1-0--2-1-0--1-0-0--3-1-0--2-0-0-|


verse
Eb|--------------------------------------------------------------------------------|
Bb|-------8----8---------6---------4------------8------8--------6---------4--------|
F#|-----8--------8---------6---------4------------8------8--------6---------4------|
C#|---8------8---------6---------4-----4/8----8------8--------6---------4------4/8-|
G#|-6----------------4---------2------------6---------------4---------2------------|
C#|--------------------------------------------------------------------------------|

Eb|-----------------------------------------|
Bb|------8------8--------6---------4--------|
F#|--------8------8--------6---------4------|
C#|----8------8--------6---------4------4/8-|
G#|--6---------------4---------2------------|
C#|-----------------------------------------|

Gt1
Eb|-------------------------------------------------------------------------------|
Bb|-------------------------------------------------------------------------------|
F#|-------------------------------------------------------------------------------|
C#|-8-8-8-8-8-8-8-8-8-8-8-8-8-8-8--11-11-11-11-11-11-11-11-11-9-9-9-9-9-9-9-9-9-9-|
G#|-6-6-6-6-6-6-6-6-6-6-6-6-6-6-6--9--9--9--9--9--9--9--9--9--7-7-7-7-7-7-7-7-7-7-|
C#|-------------------------------------------------------------------------------|
Gt2
Eb|----------------------------------------------------------------------------------------|
Bb|-16-16-16-16-16-16-16-16-16-16--13-13-13-13-13-13-13-13-13-12-12-12-12-12-12-12-11-11-12|
F#|-15-15-15-15-15-15-15-15-15-15--12-12-12-12-12-12-12-12-12-11-11-11-11-11-11-11-10-10-11|
C#|----------------------------------------------------------------------------------------|
G#|----------------------------------------------------------------------------------------|
C#|----------------------------------------------------------------------------------------|

Eb|-----------------------------------------|
Bb|-16-16-16-16-16-16-16-16-16-16-----------|
F#|-15-15-15-15-15-15-15-15-15-15-----------|
C#|-----------------------------------------|
G#|--------------------------------2-2--2-2-|
C#|--------------------------------0-0--0-0-|

Eb|--------------|
Bb|--------------|
F#|--------------|
C#|-11---9---8---|
G#|-9----7---6---|
C#|--------------|

Eb|----------------------------------------------------------------------------------------|
Bb|----------------------------------------------------------------------------------------|
F#|----------------------------------------------------------------------------------------|
C#|-13-13-13-13-13-13-13-13-13-13-13--11-11-11-11-11-11-11-11--9-9-9-9-9-9-9-9-9-9--8-8-9-9|
G#|-11-11-11-11-11-11-11-11-11-11-11--9--9--9--9--9--9--9--9---7-7-7-7-7-7-7-7-7-7--6-6-7-7|
C#|----------------------------------------------------------------------------------------|

Gt2
Eb|----------------------------------------------------------------------------------------|
Bb|-16-16-16-16-16-16-16-16-16-16--13-13-13-13-13-13-13-13-13-12-12-12-12-12-12-12-11-11-12|
F#|-15-15-15-15-15-15-15-15-15-15--12-12-12-12-12-12-12-12-12-11-11-11-11-11-11-11-10-10-11|
C#|----------------------------------------------------------------------------------------|
G#|----------------------------------------------------------------------------------------|
C#|----------------------------------------------------------------------------------------|

Eb|------------------------------------------------------|
Bb|-16-16-16-16-16-16-16-16-16-16------------------------|
F#|-15-15-15-15-15-15-15-15-15-15------------------------|
C#|------------------------------------------------------|
G#|--------------------------------2-2--2-2--2-2--2-2--2-|
C#|--------------------------------0-0--0-0--0-0--0-0--0-|

Eb|-------------------------------|
Bb|-------------------------------|
F#|-------------------------------|
C#|-------------------------4-4-4-|
G#|---------3-----3---------2-2-2-|
C#|-0-0-0-0-1-0-0-1-0-0-0-0-------|


Eb|-----------------------------------|
Bb|-----------------------------------|
F#|-----------------------------------|
C#|-----------------------------4-4-4-|
G#|-----------------------------2-2-2-|
C#|-3-1-0--2-1-0--1-0-0--3-1-0--------|


Eb|-----------------------------------|
Bb|-----------------------------------|
F#|-----------------------------------|
C#|-----------------------------------|
G#|-----------------------------------|
C#|-3-1-0--2-1-0--1-0-0--3-1-0--2-0-0-|

Eb|-----------------------------------|
Bb|-----------------------------------|
F#|-----------------------------------|
C#|-----------------------------4-4-4-|
G#|-----------------------------2-2-2-|
C#|-3-1-0--2-1-0--1-0-0--3-1-0--------|


Eb|----------------------------------------------------------------------------------------|
Bb|----------------------------------------------------------------------------------------|
F#|----------------------------------------------------------------------------------------|
C#|-13-13-13-13-13-13-13-13-13-13-13--11-11-11-11-11-11-11-11--9-9-9-9-9-9-9-9-9-9--8-8-9-9|
G#|-11-11-11-11-11-11-11-11-11-11-11--9--9--9--9--9--9--9--9---7-7-7-7-7-7-7-7-7-7--6-6-7-7|
C#|----------------------------------------------------------------------------------------|

Gt2
Eb|----------------------------------------------------------------------------------------|
Bb|-16-16-16-16-16-16-16-16-16-16--13-13-13-13-13-13-13-13-13-12-12-12-12-12-12-12-11-11-12|
F#|-15-15-15-15-15-15-15-15-15-15--12-12-12-12-12-12-12-12-12-11-11-11-11-11-11-11-10-10-11|
C#|----------------------------------------------------------------------------------------|
G#|----------------------------------------------------------------------------------------|
C#|----------------------------------------------------------------------------------------|

Eb|------------------------------------------------------|
Bb|-16-16-16-16-16-16-16-16-16-16------------------------|
F#|-15-15-15-15-15-15-15-15-15-15------------------------|
C#|------------------------------------------------------|
G#|--------------------------------2-2--2-2--2-2--2-2--2-|
C#|--------------------------------0-0--0-0--0-0--0-0--0-|

Eb|-------------------------------|
Bb|-------------------------------|
F#|-------------------------------|
C#|-------------------------4-4-4-|
G#|---------3-----3---------2-2-2-|
C#|-0-0-0-0-1-0-0-1-0-0-0-0-------|

Eb|----------|
Bb|----------|
F#|----------|
C#|----------|
G#|-2--------|
C#|-0--------|

made in hermosillo son.

Suggest correction
Give kudos to tab author, rate the tab!
1 2 3 4 5
comments
print report bad tab
guest
You may want to rate the tab now too:
select rating
Wanna post a correction for this tab? Suggest correction