Oops, an error
Loading. Please wait.

Enviado Del Infierno Tab

version 3
version 3

Whole song

97 views 3 this week
no commentswrite comment
1 2 3 4 5
3 more votes to show rating
add to favorites
launch autoscroll
font size
0
reset
how to read this tab
guitar tuner
Autoscroll
slow
fast
+/-
esc
set tempo
stop
Help us to improve Ultimate-Guitar.com Take our survey!
×
Esta es una correccion a todos los tabs de
 'El enviado del infierno' k se encuentran en atame..
la lira tiene k estar en 'D':
D, G, C, F, A, D....ok
el el riff es simple, se repite en todo la rola
y en el solo es un poco diferente....
asi como esta aqui les va a sonar igual....

Liras 1 & 2
Main riff
      PM..........          PM..........
d--------------------------------------------------|
a--------------------------------------------------|
fO------------------------------------------------O|
CO-5\7-------------8-7-5-5\7-------------8-10-5---O|
G--3\5-5-5-5-5-5-5-6-5-3-3\5-5-5-5-5-5-5-6--8-3----|
D--------------------------------------------------|

Riff en solo....rapido, talves ocupen practicarla
     PM.........      PM.........      PM........      PM...
d---------------------------------------------------------------|
a---------------------------------------------------------------|
fO-------------------------------------------------------------O|
CO-7-------------8-7-------------10-7-------------8-7-5-5-5-10-O|
G--5-5-5-5-5-5-5-6-5-5-5-5-5-5-5-8--5-5-5-5-5-5-5-6-5-3-3-3-8---|
D---------------------------------------------------------------|

d--------------------------|
a--------------------------|
f--7-7-7-7-7-7-7-7-7-7-----|
C--7-7-7-7-7-7-7-7-7-7-----|
G--5-5-5-5-5-5-5-5-5-5-----|
D--------------------------|

aver si asi le agarran....

otra cosa, tube un error con la rola de 'Rostro Maligno'
me falto un riff antes del verso, pero aqui esta.....
      PM.   PM.    PM......... 3x    PM.   PM.   PM..   PM.........
d--------------------------------|-------------------------------------|
a--------------------------------|-------------------------------------|
fO------------------------------O|-------------------------------------|
CO--9-----9-----9---------------O|--7-----7-----7-----7----------------|
G---7-7-7-7-7-7-7----------------|--5-5-5-5-5-5-5-5-5-5----------------|
D-----------------12\xxxxxxx\5---|----------------------10\xxxxxxxx\3--|
                 durante este slide>>>>>>>>>>>>>>>>>>>
                 se tocan minimo
                 6 notas, yo toco 8
                 el otro igual>>>>>>>>>>>>>>>>>>>>>>>>

ESTE ES MI IMPERIO!!!!!!!!!!
Suggest correction
Give kudos to tab author, rate the tab!
1 2 3 4 5
comments
print report bad tab
guest
You may want to rate the tab now too:
select rating
Wanna post a correction for this tab? Suggest correction