Oops, an error
Loading. Please wait.

Espantosa Enfermedad Tab

version 2
version 2

Whole song

6 views 1 this week
no commentswrite comment
1 2 3 4 5
3 more votes to show rating
add to favorites
launch autoscroll
font size
0
reset
how to read this tab
guitar tuner
×
Best way to learn
"Espantosa Enfermedad"
Autoscroll
slow
fast
+/-
esc
set tempo
stop
SOLO LE INCLUI LA SEGUNDA GUITARRA DEL INTRO
Esta rola es una de las mejores del disco


INTRO


|-----------------------------------------|
|-----------------------------------------|
|-----------------------------------------|
|----6----4----6----8----6----4----2----4-| Gtr. 1
|----4----2----4----6----4----2----0----2-|
|-----------------------------------------|

                    X2

|------------------------------------------------------------|Gtr 2
|------------------------------------------------------------|
|--------------------------------------------------------4444|
|----------------------------44444444--66666666-77777777-----|
|44444444--66666666-77777777---------------------------------|
|------------------------------------------------------------|

|------------------------------------------------------------|
|------------------------------------------------------------|
|4444--------------------------------------------------------|
|-----77777777-66666666-4444444------------------------------|
|-------------------------------7777777-6666666-4444444------|
|------------------------------------------------------------|


|------------------------------------------------------------|
|------------------------------------------------------------|
|1--21---1----------------------1--2-14--2-1-2-1-----------|Gtr. 2
|-------4---4--2--4--2--1--2--4--------------------2-24-2-1-|
|------------------------------------------------------------|
|------------------------------------------------------------|


|----------------------------------------------------|
|----------------------------------------------------|
|----------------------------------------------------|
|--66--7--66--44--------2-2-2--4-4-4-4---------------|(1A)
|--44--4--44--22--(3x)--0-0-0--2-2-2-2---------------|
|----------------------------------------------------|


(1A)

No poseo ninguna esperanza
siento mi propia decadencia
muriendo esta... inútil mi fuerza
el dolor me lleva hasta la inconsciencia
todos los dioses no me quitaran
esta espantosa infección.


|-------------------------------------------------------------------|
|-------------------------------------------------------------------|
|----------1-1-1-1--------------------------------------------------|
|2-2-4-2-4-----------------1-1-1-1---------------------------1-1-1-1|
|------------------2-2-4-2---------0-0-2-0-2-4-4-4-4-2-2-4-2--------|
|-------------------------------------------------------------------|

Espantosa enfermedad
mis días están contados
espantosa enfermedad
nunca nadie ha sido curado.

(1A)

¿ Porqué yo ?... Si soy tan joven
esta enfermedad mi vida destruye
estoy vegetando en mi cama
mi rostro comienza a palidecer
no existe forma de curarme
el cáncer devora mi cuerpo.

(Solo)


|--------------------------------------|
|--------------------------------------|
|--------------------------------------|
|-666-6-444-4-222-2--------------------|
|-444-4-222-2-000-0--------------------|
|--------------------------------------|

Yo quiero vivir la vida
aún con mi tumor
todos esos dioses
no quitarán la infección.


Se repite el primer verso luego el intro y termina la rola.
Suggest correction
Give kudos to tab author, rate the tab!
1 2 3 4 5
comments
print report bad tab
guest
You may want to rate the tab now too:
select rating
Wanna post a correction for this tab? Suggest correction