Oops, an error
Loading. Please wait.

Fariseos Tab

117 views 1 this week
no commentswrite comment
1 2 3 4 5
3 more votes to show rating
add to favorites
launch autoscroll
font size
0
reset
how to read this tab
guitar tuner
×
Best way to learn
"Fariseos"
Autoscroll
slow
fast
+/-
esc
set tempo
stop
Cabron por si algien la busca aqui esta...........
        ¡¡¡¡ME AGREGAN A SU FACEBOOK!!!!


INTRO?? (GUITARRA 1)
C#|---------------------------------------------------------------
G#|---------------------------------------------------------------
 E|---------------------------------------------------------------
 B|---------------------------------------------------------------
F#|-222-222-222-333-222-222-222-555-222-222-222-333-222555-333777-
C#|-000-000-000-111-000-000-000-333-000-000-000-111-000333-111555-

        (GUITARRA 2)
C#|--------------------------------------------------------
G#|--------------------------------------------------------
 E|--------------------------------------------------------
 B|--------------------------------------------------------
F#|-000000000111-0000000000333-000000000111-000333-111555--
C#|-000000000111-0000000000333-000000000111-000333-111555--

Aquí la guitarra 1 toca repetidamente de arriba hacia abajo?.
C#|-------------------------------------------------
G#|-------------------------------------------------
 E|-------------------------------------------------
 B|-14-al-9--9-al-14--9-al-14?9 al-14--15-al-12-----
F#|-------------------------------------------------
C#|-------------------------------------------------

    (GUITARRA 2)
C#|--------------------------------------------------------
G#|--------------------------------------------------------
 E|--------------------------------------------------------
 B|--------------------------------------------------------
F#|-000000000111-0000000000333-000000000111-000333-111555--
C#|-000000000111-0000000000333-000000000111-000333-111555--

  (GUITARRA 1 Y 2)
C#|--------------------------------------------------------
G#|--------------------------------------------------------
 E|--------------------------------------------------------
 B|--------------------------------------------------------
F#|-000000000111-0000000000333-000000000111-000333-111555--
C#|-000000000111-0000000000333-000000000111-000333-111555--

C#|-------------------------|--------------------------------------
G#|-------------------------|--------------------------------------
 E|-------------------------|--------------------------------------
 B|----76----------76-------|----10-9------------10-9--------------
F#|----------67------76-6/7-|------------10-9--------10-9?-9/10--2-
C#|-000---000---000----8----|-000-----000----000---------11------0-

C#|-------------------------------------------------
G#|-------------------------------------------------
 E|-------------------------------------------------
 B|-------------------------------------------------
F#|-222222222222222-3-3-3---------------------------
C#|-000000000000000-1-1-1---------------------------

TIEMPO-1:23 (ES UN GRAN ACOTOR?..)
C#|-------------------------------------------------
G#|-------------------------------------------------
 E|-------------------------------------------------
 B|-------------------------------------------------
F#|-4444444444666669999-2-22222-22222-22222-22222---
C#|-2222222222444447777-0-00000-00000-00000-00000---

TIEMPO-1:55 (GUITARRA 1)
C#|-------------------------------------------------
G#|-------------------------------------------------
 E|-------------------------------------------------
 B|-------------------------------------------------
F#|-5-------5/8-8-8-5-------------------------------
C#|-3-------3/6-6-6-3-------------------------------

           (GUITARRA 2)
C#|-------------------------------------------------
G#|-------------------------------------------------
 E|-------------------------------------------------
 B|-------------------------------------------------
F#|-5---------------5/8-8-8-5-----------------------
C#|-3-3333333333333-3/6-6-6-3-----------------------

 (APARENTAS CON?..)
C#|--------------------------|----------------------------
G#|--------------------------|----------------------------
 E|--------------------------|----------------------------
 B|--------------------------|----------------------------
F#|-2----------------2-3-3-2-|-5---------------5/8-8-8-5--
C#|-0-00000000000000-0-1-1-0-|-3-3333333333333-3/6-6-6-3--

C#|-------------------------------------------------
G#|-------------------------------------------------
 E|-------------------------------------------------
 B|-------------------------------------------------
F#|-222222222222222-3-3-3---------------------------
C#|-000000000000000-1-1-1---------------------------

C#|-------------------------|--------------------------------------
G#|-------------------------|--------------------------------------
 E|-------------------------|--------------------------------------
 B|----76----------76-------|----10-9------------10-9--------------
F#|----------67------76-6/7-|------------10-9--------10-9?-9/10--2-
C#|-000---000---000----8----|-000-----000----000---------11------0-

Walfred vez aqui esta fariseos camarada de toni iommi
pra alex webster y ozzy osbourne.... yeaahhhh
Suggest correction
Give kudos to tab author, rate the tab!
1 2 3 4 5
comments
print report bad tab
guest
You may want to rate the tab now too:
select rating
Wanna post a correction for this tab? Suggest correction