Oops, an error
Loading. Please wait.

Humanidad De Marmol Tab

33 views 1 this week
no commentswrite comment
1 2 3 4 5
3 more votes to show rating
add to favorites
launch autoscroll
font size
0
reset
how to read this tab
guitar tuner
Autoscroll
slow
fast
+/-
esc
set tempo
stop
Ajuersas.... puta con pito..... ves angelito si la logre sacar...

C#|-------------------------------------------------------
G#|-------------------------------------------------------
 E|---9h10-9h10-9h10-9h10-9h10-9h10-9h10-9h10-9h10--------
 B|-77----7----7---------7----7---------7----7-----10-12--
F#|------------------------------------------------8?-10--
C#|-------------------------------------------------------

C#|-------------------------------------------------------
G#|-------------------------------------------------------
 E|---9h10-9h10-9h10-9h10-9h10-9h10-9h10-9h10-9h10--------
 B|-77----7----7---------7----7---------7----7-----12-10--
F#|------------------------------------------------10-8---
C#|-------------------------------------------------------

C#|---------------------------------------
G#|---------------------------------------
 E|---------------------------------------
 B|---------------------------------------
F#|-7-7777-77-7777-77-7777-8-7-6-5--------
C#|-5-5555-55-5555-55-5555---------8-7-6--

C#|---------------------|----------------------
g#|---------------------|----------------------
G#|-5-----7-----9-----9-|-79999-75555-4h5p4----
 E|-3-----5-----7-----7-|------------------5-7-
 B|---000---000---000---|----------------------
F#|---------------------|----------------------

C#|---------------------------------------
G#|---------------------------------------
 E|---------------------------------------
 B|---------------------------------------
F#|-7-7777-77-7777-77-7777-8-7-6-5--------
C#|-5-5555-55-5555-55-5555---------8-7-6--

C#|---------------------|----------------------
g#|---------------------|----------------------
G#|-5-----7-----9-----9-|-79999-75555-4h5p4----
 E|-3-----5-----7-----7-|------------------5-7-
 B|---000---000---000---|----------------------
F#|---------------------|----------------------

C#|---------------------------------------
G#|---------------------------------------
 E|---------------------------------------
 B|---------------------------------------
F#|-7-7777-77-7777-77-7777-8-7-6-5--------
C#|-5-5555-55-5555-55-5555---------8-7-6--

C#|--------------------------------------
G#|--------------------------------------
 E|-9-10--79-57--------------------------
 B|-------------57-----------------------
F#|----------------77-777-77-777-77-777--
C#|----------------55-555-55-555-55-555--

SOLO??.
C#|----------------------------------------------------------------
G#|----------------------------------------------------------------
 E|-10-11-12--10-11-12?10-9h10-9h10p9------------------------------
 B|----------------------------------10-11?10h11p12---10-----------
F#|-------------------------------------------------12--12-10-12---
C#|----------------------------------------------------------------

C#|-------------|------------------------------
G#|-------------|------------------------------
 E|-------------|------------------------------
 B|-10/12-7/9-7-|-------------------------6-5--
F#|-------------|-875-875-875-875-875-875-4-3--
C#|-------------|------------------------------

C#|--------------------------------------------------------------
G#|--------------------------------------------------------------
 E|--------------------------------------------------------------
 B|-------------------5-------------------5----------------------
F#|-7-777-7-777-7-777-3-7-777-7-777-7-777-3-3-333-3-333-5-555-7--
C#|-5-555-5-555-5-555---5-555-5-555-5-555---1-111-1-111-3-333-5?-

C#|----------------------
G#|----------------------
 E|-79999-75555-4h5p4----
 B|------------------5-7-
F#|----------------------
C#|----------------------
Suggest correction
Give kudos to tab author, rate the tab!
1 2 3 4 5
comments
print report bad tab
guest
Wanna post a correction for this tab? Suggest correction