Oops, an error
Loading. Please wait.

Iglesia Interior Tab

28 views 1 this week
no commentswrite comment
1 2 3 4 5
3 more votes to show rating
add to favorites
launch autoscroll
font size
0
reset
how to read this tab
guitar tuner
Autoscroll
slow
fast
+/-
esc
set tempo
stop
C#5 / D5  

Gtr.1 
G -------------6--------------6--------------7----------------7--------
D ---------6-------------6--------------7---------------7--------------      X 2
A ---4--------------4---------------5--------------5-------------------

Gtr. 2
G ---6------------------------------7-----------------------------------
D ---6------------------------------7-----------------------------------
A ---4------------------------------5-----------------------------------


Colgado en el inmenso mar       Hablan las nubes del resplandor
G -------------6--------------6--------------7----------------7--------
D ---------6-------------6--------------7---------------7--------------      
A ---4--------------4---------------5--------------5-------------------

Gtr. 2
G ---6------------------------------7-----------------------------------
D ---6------------------------------7-----------------------------------
A ---4------------------------------5-----------------------------------

C#5
Secas en las orillas de oro
E5                       D#5              C#5
Donde no existe pena o dolor
E5                      D#5                    C#5
Místicos lagos azules de estrellas
E5                      D#5           C#5
Nunca antes contemplados
E5                      D#5                  C#5 / E5 / D#5 / D5
Un mundo solo visto en sueños

C#5                                         E5 / D#5 / D5  
Donde fundaremos otro hogar
C#5                                    E5 / D#5 / D5
Esta tierra adornada estarán
C#5                             E5 / D#5 / D5 
Con escalas escarlatas
C#5                            E5 / D#5 / D5 
Y las aguas cristalinas
C#5                                         E5 / D#5 / D5
Que Irán de abajo hacia arriba

C#5                  E5 / D#5 / D5
Iglesia interior  x 2

C#5 / E5 / D#5

C#5
Los demás brillaran
E5                        D#5          C#5
Con su magnifica luz eterna
E5                        D#5             C#5 
Donde todos otra vida tendrán
E5                        D#5
Llena de paz y comodidad

F5 / E5 / G5 / F#5 / C#5   X 2

F5   E5              G5         F#5
Los sentimientos de tristeza
F5   E5              G5         F#5
Dejaran de caer las lagrimas
F5   E5              G5         F#5
Y entonces ya no buscaremos
F5   E5              G5         F#5
El origen de nuestra agonía

C#5 / E5 / D#5

C#5
No mas intención de sufrimiento
E5                            D#5                 C#5
Hemos encontrado la luz sin razón
E5                            D#5                       C#5
Hemos encontrado nuestro propio dios
E5                            D#5          C#5
En la profundidad del corazón


C#5                                         E5 / D#5 / D5  
Donde fundaremos otro hogar
C#5                                    E5 / D#5 / D5
Esta tierra adornada estarán
C#5                             E5 / D#5 / D5 
Con escalas escarlatas
C#5                            E5 / D#5 / D5 
Y las aguas cristalinas
C#5                                         E5 / D#5 / D5
Que Irán de abajo hacia arriba

C#5                  E5 / D#5 / D5
Iglesia interior  x 2


F5 / E5 / G5 / F#5 / C#5   X 4

E5 / G5 / F#5 / C#5    X 2

C#5 / D5  

Gtr.1 
G -------------6--------------6--------------7----------------7--------
D ---------6-------------6--------------7---------------7--------------      X 2
A ---4--------------4---------------5--------------5-------------------

Gtr. 2
G ---6------------------------------7-----------------------------------
D ---6------------------------------7-----------------------------------
A ---4------------------------------5-----------------------------------

Gtr.1 
G -------------6--------------6--------------7----------------7--------
D ---------6-------------6--------------7---------------7--------------      
A ---4--------------4---------------5--------------5-------------------

Gtr. 2
E ---14---12------------------------------14---12------------------------------------
B ---------------15---14---15---14--------------------15---14---15---14----------

E ---14---15---14---15
Suggest correction
Give kudos to tab author, rate the tab!
1 2 3 4 5
comments
print report bad tab
guest
Wanna post a correction for this tab? Suggest correction