Oops, an error
Loading. Please wait.

La Horca Tab

77 views 1 this week
no commentswrite comment
1 2 3 4 5
3 more votes to show rating
add to favorites
×
Save as Personal and add changes to this tab that will be seen only by you. Learn more ›
×
You can save this tab as Personal to edit and correct it or add notes. All changes will be seen only by you. Learn more »
save as personal
new!
launch autoscroll
font size
0
reset
how to read this tab
guitar tuner
Autoscroll
slow
fast
+/-
esc
set tempo
stop
TRANSCRIBED BY RUDY GUZMAN
guzman_84@

:-------------------------------------------------------------------------|
:-------------------------------------------------------------------------|
:-------------------------------------------------------------------------|
:-9-------------10------------7-------------9-9-9-9-9-9-9-9--5-5--9-9-9-9-|
:-7--7-7-7-7-7--8--8-8-8-8-8--5--5-5-5-5-5--7-7-7-7-7-7-7-7--3-3--7-7-7-7-|
:-------------------------------------------------------------------------|

eb:--------------------------------------|
Bb:--------------------------------------|
Gb:--------------------------------------|
Db:-5-6-5-6\3-5/6-5--5-5-5--2-2-2--5-5-5-|
Ab:-7-8-7-8\5-3/8-7--7-7-7--3-3-3--7-7-7-|
Eb:--------------------------------------|

eb:----------|
Bb:----------|
Gb:----------|
Db:-5--2--5--|
Ab:-7--3--7--|
Eb:----------|

:------------------------------------------------------------------------------|
:------------------------------------------------------------------------------|
:------------------------------------------------------------------------------|
:---------7h8p7-----------7h8p7-----------7h8p7-----5h7p7------9-9-9--5-5--9-9-|
:-7-7-7-7-------7-7-7-7-7-------7-7-7-7-7-------5-5--------7-7-7-7-7--3-3--7-7-|
:------------------------------------------------------------------------------|

:------------------------------------------------------------------------------|
:------------------------------------------------------------------------------|
:------------------------------------------------------------------------------|
:---------7h8p7-----------7h8p7-----------7h8p7-----5h7p7------9-9-9--5-5--9-9-|
:-7-7-7-7-------7-7-7-7-7-------7-7-7-7-7-------5-5--------7-7-7-7-7--3-3--7-7-|
:------------------------------------------------------------------------------|

:------------------------------------------------------------------------------------------|
:------------------------------------------------------------------------------------------|
:------------------------------------------------------------------------------------------|
:-9-9-9-9-9-9-9-9-9-9-9-9-9-9-10-10-10-10-10-10-10-10-10--7-7-7-7-7-7-7-7-7--9-9-9-9-9-9-5-|
:-7-7-7-7-7-7-7-7-7-7-7-7-7-7-8--8--8--8--8--8--8--8--8---5-5-5-5-5-5-5-5-5--7-7-7-7-7-7-3-|
:------------------------------------------------------------------------------------------|

:------------------------------------------------------------------------------|
:------------------------------------------------------------------------------|
:------------------------------------------------------------------------------|
:---------7h8p7-----------7h8p7-----------7h8p7-----5h7p7------9-9-9--5-5--9-9-|
:-7-7-7-7-------7-7-7-7-7-------7-7-7-7-7-------5-5--------7-7-7-7-7--3-3--7-7-|
:------------------------------------------------------------------------------|

:------------------------------------------------------------------------------------------|
:------------------------------------------------------------------------------------------|
:------------------------------------------------------------------------------------------|
:-9-9-9-9-9-9-9-9-9-9-9-9-9-9-10-10-10-10-10-10-10-10-10--7-7-7-7-7-7-7-7-7--9-9-9-9-9-9-5-|
:-7-7-7-7-7-7-7-7-7-7-7-7-7-7-8--8--8--8--8--8--8--8--8---5-5-5-5-5-5-5-5-5--7-7-7-7-7-7-3-|
:------------------------------------------------------------------------------------------|

eb:------------------------------------------------|
Bb:------------------------------------------------|
Gb:------------------------------------------------|
Db:------------------------------------------------|
Ab:-9-9-9-9-9-9-9-9-9-7-9-10-10-10-10-10-10-12-10--|
Eb:-7-7-7-7-7-7-7-7-7-5-7-8--8--8--8--8--8--10-8---|

:----------------------------------------------------------------------------|
:----------------------------------------------------------------------------|
:----------------------------------------------------------------------------|
:-9-9-9-9-9-9-9-9-9-9-9-9-9-9-10-10-10-10-10-10-10-10-10--9-9-9-9-9-9--7--12-|
:-7-7-7-7-7-7-7-7-7-7-7-7-7-7-8--8--8--8--8--8--8--8--8---7-7-7-7-7-7--5--10-|
:----------------------------------------------------------------------------|

eb:----------------|
Bb:----------------|
Gb:----------------|
Db:-5--6--5--3--6--|
Ab:-7--8--7--5--8--|
Eb:----------------|

solo
          repeat
eb:-------------12h15p12-|-12h17p12----------12h15p12------------------------------------|
Bb:-15-15-15-15----------|----------15-15-15----------15-12-12h15p12--------13b---15b~~~-|
Gb:----------------------|--------------------------------------------14-12--------------|
Db:----------------------|---------------------------------------------------------------|
Ab:----------------------|---------------------------------------------------------------|
Eb:----------------------|---------------------------------------------------------------|

                                                repeat
eb:-----------------------------------------|---19-21-19-|---------------------------------|
Bb:-19b~~~~-20b-20b~~~~--20b~~~~--20b~~~~~\-|-21---------|-22-19-20-22-20-19---------------|
Gb:-----------------------------------------|------------|-------------------21-19-19-19-19|
Db:-----------------------------------------|------------|---------------------------------|
Ab:-----------------------------------------|------------|---------------------------------|
Eb:-----------------------------------------|------------|---------------------------------|

                                            bar
:-------------------------------------------------21b--18------22b(24)~~~~~~~~~--|
:----------------------------------------------------------22--------------------|
:-21-19--21b~~~~------0AH--------------------------------------------------------|
:-------------------------------------0h2h3-0------------------------------------|
:---------------------------0h2h3p2p0--------------------------------------------|
:--------------------------------------------------------------------------------|


:----------------------------------------------------------------------------|
:----------------------------------------------------------------------------|
:----------------------------------------------------------------------------|
:-9-9-9-9-9-9-9-9-9-9-9-9-9-9-10-10-10-10-10-10-10-10-10--9-9-9-9-9-9--7--12-|
:-7-7-7-7-7-7-7-7-7-7-7-7-7-7-8--8--8--8--8--8--8--8--8---7-7-7-7-7-7--5--10-|
:----------------------------------------------------------------------------|


:------------------------------------------------------------------------------|
:------------------------------------------------------------------------------|
:------------------------------------------------------------------------------|
:---------7h8p7-----------7h8p7-----------7h8p7-----5h7p7------9-9-9--5-5--9-9-|
:-7-7-7-7-------7-7-7-7-7-------7-7-7-7-7-------5-5--------7-7-7-7-7--3-3--7-7-|
:------------------------------------------------------------------------------|

:------------------------------------------------------------------------------|
:------------------------------------------------------------------------------|
:------------------------------------------------------------------------------|
:---------7h8p7-----------7h8p7-----------7h8p7-----5h7p7------9-9-9--5-5--9-9-|
:-7-7-7-7-------7-7-7-7-7-------7-7-7-7-7-------5-5--------7-7-7-7-7--3-3--7-7-|
:------------------------------------------------------------------------------|

:------------------------------------------------------------------------------------------|
:------------------------------------------------------------------------------------------|
:------------------------------------------------------------------------------------------|
:-9-9-9-9-9-9-9-9-9-9-9-9-9-9-10-10-10-10-10-10-10-10-10--7-7-7-7-7-7-7-7-7--9-9-9-9-9-9-5-|
:-7-7-7-7-7-7-7-7-7-7-7-7-7-7-8--8--8--8--8--8--8--8--8---5-5-5-5-5-5-5-5-5--7-7-7-7-7-7-3-|
:------------------------------------------------------------------------------------------|

eb:------------------------------------------------|
Bb:------------------------------------------------|
Gb:------------------------------------------------|
Db:------------------------------------------------|
Ab:-9-9-9-9-9-9-9-9-9-7-9-10-10-10-10-10-10-12-10--|
Eb:-7-7-7-7-7-7-7-7-7-5-7-8--8--8--8--8--8--10-8---|

:----------------------------------------------------------------------------|
:----------------------------------------------------------------------------|
:----------------------------------------------------------------------------|
:-9-9-9-9-9-9-9-9-9-9-9-9-9-9-10-10-10-10-10-10-10-10-10--9-9-9-9-9-9--7--12-|
:-7-7-7-7-7-7-7-7-7-7-7-7-7-7-8--8--8--8--8--8--8--8--8---7-7-7-7-7-7--5--10-|
:----------------------------------------------------------------------------|


:-------------------------------------------------------------------------|
:-------------------------------------------------------------------------|
:-------------------------------------------------------------------------|
:-9-------------10------------7-------------9-9-9-9-9-9-9-9--5-5--9-9-9-9-|
:-7--7-7-7-7-7--8--8-8-8-8-8--5--5-5-5-5-5--7-7-7-7-7-7-7-7--3-3--7-7-7-7-|
:-------------------------------------------------------------------------|

eb:--------------------------------------|
Bb:--------------------------------------|
Gb:--------------------------------------|
Db:-5-6-5-6\3-5/6-5--5-5-5--2-2-2--5-5-5-|
Ab:-7-8-7-8\5-3/8-7--7-7-7--3-3-3--7-7-7-|
Eb:--------------------------------------|

                           Fbdk
eb:-------------------------19~~~~-------------|
Bb:--------------------------------------------|
Gb:--------------------------------------------|
Db:-555555555555555555555-------------9--------|
Ab:-777777777777777777777-------------7--------|
Eb:--------------------------------------------|


made in hell


Halford


TRANSCRIBED BY RUDY GUZMAN


guzman_84@


e:-------------------------------------------|
B:-------------------------------------------|
G:-------------------------------------------|
D:-7----10-----5-----10--9--7---5-----10--3--|
A:-5----8------3-----8---7--5---3-----8---1--|
D:-------------------------------------------|

e:---------------------------------------------------------|
B:---------6---8--6--------6-----------6--8-6--------6~~~~-|
G:-7~~~--9----------9~~~~----9-7~~~~-9--------9--7-9-------|
D:---------------------------------------------------------|
A:---------------------------------------------------------|
D:---------------------------------------------------------|

e:-----------------------------------------------------------|
B:-----------------------------------------------------------|
G:-----------------------------------------------------------|
D:-7-7-----7-----7-7-----7-----7-7-----7---------------------|
A:-5-5-----5-----5-5-----5-----5-5-----5------3-5-6--5--3h5--|
D:-----0-0---0-0-----0-0---0-0-----0-0---0-0--3-5-6--5--3h5--|

  solo 1                                                                Bar---------------- 
e:----------------------------------------------------16B----------------------------------|
B:--------15------------15-------------15----15----15--------------------------------------|
G:-17B-------17p15--17B----17p15--17B----17B----17B--------14h17p14h17p14h17p14h17p14h17p14|
D:-----------------------------------------------------------------------------------------|
A:-----------------------------------------------------------------------------------------|
D:-----------------------------------------------------------------------------------------|

   ---------------------
:-----------------------------------17B-|
:---------------------------------------|
:-14h17p14h17p14h17p14h17p14h17p14------|
:---------------------------------------|
:---------------------------------------|
:---------------------------------------|


verse
e:---------------------------------------------------------|
B:---------------------------------------------------------|
G:---------------------------------------------------------|
D:-7-7-----7-----7-7-----7-----7-7-----7-------------------|
A:-5-5-----5-----5-5-----5-----5-5-----5------3-5--3--3-5--|
D:-----0-0---0-0-----0-0---0-0-----0-0---0-0--3-5--3--3-5--|

e:-----------------------------------------------------------|
B:-----------------------------------------------------------|
G:-----------------------------------------------------------|
D:-7-7-----7-----7-7-----7-----7-7-----7---------------------|
A:-5-5-----5-----5-5-----5-----5-5-----5------3-5-6--5--3h5--|
D:-----0-0---0-0-----0-0---0-0-----0-0---0-0--3-5-6--5--3h5--|

e:------------------------------------------------------|
B:--------------------------------------------6-5-------|
G:--------------------------------------------5-5-------|
D:-7-7-----7-----7-7-----7-----7-7-----7----------------|
A:-5-5-----5-----5-5-----5-----5-5-----5-----------5--3-|
D:-----0-0---0-0-----0-0---0-0-----0-0---0-0-------5--3-|

e:-----------------------------------------------------------|
B:-----------------------------------------------------------|
G:-----------------------------------------------------------|
D:-7-7-----7-----7-7-----7-----7-7-----7---------------------|
A:-5-5-----5-----5-5-----5-----5-5-----5------3-5-6--5--3h5--|
D:-----0-0---0-0-----0-0---0-0-----0-0---0-0--3-5-6--5--3h5--|


e:------------------------------------------------------|
B:--------------------------------------------6-5--6-6--|
G:-7-7-----7-----7-7-----7-----7-7-----7------5-5--5-5--|
D:-5-5-----5-----5-5-----5-----5-5-----5----------------|
A:-----0-0---0-0-----0-0---0-0-----0-0---0-0------------|
D:------------------------------------------------------|

e:--------------------------------------------------------|
B:-----------------------6-5-------------------------6-6--|
G:-----------------------5-5-------------------------5-5--|
D:-7-7-----7-----7-7-----------7-7-----7-----7-7----------|
A:-5-5-----5-----5-5-----------5-5-----5-----5-5----------|
D:-----0-0---0-0-----0-0---0-0-----0-0---0-0-----0-0------|

e:-------------------------------------------------|
B:--------------------------------------------6-5--|
G:-7-7-----7-----7-7-----7-----7-7-----7------5-5--|
D:-5-5-----5-----5-5-----5-----5-5-----5-----------|
A:-----0-0---0-0-----0-0---0-0-----0-0---0-0-------|
D:-------------------------------------------------|


e:-----------------------------------|
B:-----------------------------------|
G:-----------------------------------|
D:-3-----5---------------------------|
A:-1-----3----5--3--0-----3--0-------|
D:---------------------6--------6-3--|


e:-------------------------------------------------------------------|
B:-------------------------------------------------------------------|
G:-------------------------------------------------------------------|
D:-------------------------------------------------------------------|
A:-0-----------------3-0-------3-5--3-----------------3-0------------|
D:-0--0-0-0-0-0-0-0--3-0--0-0--3-5--3--0-0-0-0-0-0-0--3-0--0-0-0-0-0-|

e:---------------------------------------------------------------------------|
B:---------------------------------------------------------------------------|
G:---------------------------------------------------------------------------|
D:---------------------------------------------------------------------------|
A:-0-----------------3-0-------3-5--3-----------------5--3--0-----3--0-------|
D:-0--0-0-0-0-0-0-0--3-0--0-0--3-5--3--0-0-0-0-0-0-0-----------6--------6--3-|


solo 2
e:-------------------------------------------------------------------|
B:------------------------------15-----------------------------------|
G:-17Bf--------17B~~~~~~~---17B-----17p15--14h17p14-----14-----------|
D:---------------------------------------------------17----17--15~~~-|
A:-------------------------------------------------------------------|
D:-------------------------------------------------------------------|

:-----------------------------------------------------------------------------|
:-----------------------------------------------------------------------------|
:-----14h17p14h17p14----14h17p14h17p14----14h17p14h17p14----14h17p14h17p14----|
:-17B----------------17----------------17----------------17----------------17-|
:-----------------------------------------------------------------------------|
:-----------------------------------------------------------------------------|

e:----------------------------------------17B----|
B:-----------------------------------------------|
G:-14h17p14----14h17p14----14h17p14----14--------|
D:----------17----------17----------17-----------|
A:-----------------------------------------------|
D:-----------------------------------------------|


verse
e:---------------------------------------------------------|
B:---------------------------------------------------------|
G:---------------------------------------------------------|
D:-7-7-----7-----7-7-----7-----7-7-----7-------------------|
A:-5-5-----5-----5-5-----5-----5-5-----5------3-5--3--3-5--|
D:-----0-0---0-0-----0-0---0-0-----0-0---0-0--3-5--3--3-5--|

e:-----------------------------------------------------------|
B:-----------------------------------------------------------|
G:-----------------------------------------------------------|
D:-7-7-----7-----7-7-----7-----7-7-----7---------------------|
A:-5-5-----5-----5-5-----5-----5-5-----5------3-5-6--5--3h5--|
D:-----0-0---0-0-----0-0---0-0-----0-0---0-0--3-5-6--5--3h5--|

e:------------------------------------------------------|
B:--------------------------------------------6-5-------|
G:--------------------------------------------5-5-------|
D:-7-7-----7-----7-7-----7-----7-7-----7----------------|
A:-5-5-----5-----5-5-----5-----5-5-----5-----------5--3-|
D:-----0-0---0-0-----0-0---0-0-----0-0---0-0-------5--3-|

e:-----------------------------------------------------------|
B:-----------------------------------------------------------|
G:-----------------------------------------------------------|
D:-7-7-----7-----7-7-----7-----7-7-----7---------------------|
A:-5-5-----5-----5-5-----5-----5-5-----5------3-5-6--5--3h5--|
D:-----0-0---0-0-----0-0---0-0-----0-0---0-0--3-5-6--5--3h5--|


e:------------------------------------------------------|
B:--------------------------------------------6-5--6-6--|
G:-7-7-----7-----7-7-----7-----7-7-----7------5-5--5-5--|
D:-5-5-----5-----5-5-----5-----5-5-----5----------------|
A:-----0-0---0-0-----0-0---0-0-----0-0---0-0------------|
D:------------------------------------------------------|

e:--------------------------------------------------------|
B:-----------------------6-5-------------------------6-6--|
G:-----------------------5-5-------------------------5-5--|
D:-7-7-----7-----7-7-----------7-7-----7-----7-7----------|
A:-5-5-----5-----5-5-----------5-5-----5-----5-5----------|
D:-----0-0---0-0-----0-0---0-0-----0-0---0-0-----0-0------|

e:-------------------------------------------------|
B:--------------------------------------------6-5--|
G:-7-7-----7-----7-7-----7-----7-7-----7------5-5--|
D:-5-5-----5-----5-5-----5-----5-5-----5-----------|
A:-----0-0---0-0-----0-0---0-0-----0-0---0-0-------|
D:-------------------------------------------------|


e:-----------------------------------|
B:-----------------------------------|
G:-----------------------------------|
D:-3-----5---------------------------|
A:-1-----3----5--3--0-----3--0-------|
D:---------------------6--------6-3--|


e:-------------------------------------------------------------------|
B:-------------------------------------------------------------------|
G:-------------------------------------------------------------------|
D:-------------------------------------------------------------------|
A:-0-----------------3-0-------3-5--3-----------------3-0------------|
D:-0--0-0-0-0-0-0-0--3-0--0-0--3-5--3--0-0-0-0-0-0-0--3-0--0-0-0-0-0-|

e:---------------------------------------------------------------------------|
B:---------------------------------------------------------------------------|
G:---------------------------------------------------------------------------|
D:---------------------------------------------------------------------------|
A:-0-----------------3-0-------3-5--3-----------------5--3--0-----3--0-------|
D:-0--0-0-0-0-0-0-0--3-0--0-0--3-5--3--0-0-0-0-0-0-0-----------6--------6--3-|

e:-------------------------------------------------------------------|
B:-------------------------------------------------------------------|
G:-------------------------------------------------------------------|
D:-------------------------------------------------------------------|
A:-0-----------------3-0-------3-5--3-----------------3-0------------|
D:-0--0-0-0-0-0-0-0--3-0--0-0--3-5--3--0-0-0-0-0-0-0--3-0--0-0-0-0-0-|

e:---------------------------------------------------------------------------|
B:---------------------------------------------------------------------------|
G:---------------------------------------------------------------------------|
D:---------------------------------------------------------------------------|
A:-0-----------------3-0-------3-5--3-----------------5--3--0-----3--0-------|
D:-0--0-0-0-0-0-0-0--3-0--0-0--3-5--3--0-0-0-0-0-0-0-----------6--------6--3-|


:-------------------------------------------------------------------------|
:-------------------------------------------------------------------------|
:-------------------------------------------------------------------------|
:-2-----5-----2----5-4--2----5-4--2-----4---7--6---4---7--6----4---5---7--|
:-0-----3-----0----3-2--0----3-2--0-----2---5--4---2---5--4----2---3---5--|
:-------------------------------------------------------------------------|


solo 3
e:-18B~~~~---------------------------------------------------------------------------------|
B:-----------------------------------------------------------------------------------------|
G:-----------15B----------9ah--------------------------------------------------------------|
D:------------------7-8-9-----9--8h9p8h9p8h9p8~~~--------------------------------7----7-9-7|
A:----------------------------------------------------------7-8-10-8-7----7-8-10----9------|
D:-------------------------------------------------9-10-12-------------10------------------|

:-----------------------------------------------------------------------------------------|
:-----------------------------------------------------------------------------------------|
:----7---7--9-7-9/12--9-12-9-12-9----9-12-9-12-9-----9-12-9-12-9-----9-12-9-12-9-----9-12-|
:-9----9--------------------------12-------------12---------------12--------------12------|
:-----------------------------------------------------------------------------------------|
:-----------------------------------------------------------------------------------------|

e:----------------15B---15-14-12----12--------------------------------------|
B:-------------------------------15----15-14-12-----12----------------------|
G:-/15-14-12-14~~--------------------------------14----14-12-14p12----12~~~-|
D:-----------------------------------------------------------------14-------|
A:--------------------------------------------------------------------------|
D:--------------------------------------------------------------------------|

:------------------------------------------------------------------------------------------|
:------------------------------------------------------------------------------------------|
:16-16-16-16-16--16-19-16-19-16----16-19-16-19-16----16-19-16-19-16----16-19-16----16-19-16|
:-------------------------------19----------------19----------------19----------19---------|
:------------------------------------------------------------------------------------------|
:------------------------------------------------------------------------------------------|

e:-----------------------------------------------------------------------------------------|
B:------------16-17-19-17-16---------------------------------------------------------------|
G:---16-17-19----------------19-16-17-19-17-16---------------------------------------------|
D:19-------------------------------------------19-16-17-19-17-16---------------------------|
A:---------------------------------------------------------------18-15-16-18-16-15---------|
D:---------------------------------------------------------------------------------20-18-17|

e:---------------------------------------------------------|
B:---------6---8--6--------6-----------6--8-6--------6~~~~-|
G:-7~~~--9----------9~~~~----9-7~~~~-9--------9--7-9-------|
D:---------------------------------------------------------|
A:---------------------------------------------------------|
D:---------------------------------------------------------|

e:-----------------------------------------------------------------------------------------|
B:---------6---8--6--------6-----------6--8-6--------6~~~~--8-6-8--10-8-10--11-10-11/18~~~-|
G:-7~~~--9----------9~~~~----9-7~~~~-9--------9--7-9---------------------------------------|
D:-----------------------------------------------------------------------------------------|
A:-----------------------------------------------------------------------------------------|
D:-----------------------------------------------------------------------------------------|


e:---------------------------------------------------------|
B:---------------------------------------------------------|
G:---------------------------------------------------------|
D:-7-7-----7-----7-7-----7-----7-7-----7-------------------|
A:-5-5-----5-----5-5-----5-----5-5-----5------3-5--3--5----|
D:-----0-0---0-0-----0-0---0-0-----0-0---0-0--3-5--3--5----|

e:-----------------------------------------------------------|
B:-----------------------------------------------------------|
G:-----------------------------------------------------------|
D:-7-7-----7-----7-7-----7-----7-7-----7---------------------|
A:-5-5-----5-----5-5-----5-----5-5-----5------3-5-6--5--3h5--|
D:-----0-0---0-0-----0-0---0-0-----0-0---0-0--3-5-6--5--3h5--|


verse
e:---------------------------------------------------------|
B:---------------------------------------------------------|
G:---------------------------------------------------------|
D:-7-7-----7-----7-7-----7-----7-7-----7-------------------|
A:-5-5-----5-----5-5-----5-----5-5-----5------3-5--3--3-5--|
D:-----0-0---0-0-----0-0---0-0-----0-0---0-0--3-5--3--3-5--|

e:-----------------------------------------------------------|
B:-----------------------------------------------------------|
G:-----------------------------------------------------------|
D:-7-7-----7-----7-7-----7-----7-7-----7---------------------|
A:-5-5-----5-----5-5-----5-----5-5-----5------3-5-6--5--3h5--|
D:-----0-0---0-0-----0-0---0-0-----0-0---0-0--3-5-6--5--3h5--|

e:------------------------------------------------------|
B:--------------------------------------------6-5-------|
G:--------------------------------------------5-5-------|
D:-7-7-----7-----7-7-----7-----7-7-----7----------------|
A:-5-5-----5-----5-5-----5-----5-5-----5-----------5--3-|
D:-----0-0---0-0-----0-0---0-0-----0-0---0-0-------5--3-|

e:-----------------------------------------------------------|
B:-----------------------------------------------------------|
G:-----------------------------------------------------------|
D:-7-7-----7-----7-7-----7-----7-7-----7---------------------|
A:-5-5-----5-----5-5-----5-----5-5-----5------3-5-6--5--3h5--|
D:-----0-0---0-0-----0-0---0-0-----0-0---0-0--3-5-6--5--3h5--|


e:------------------------------------------------------|
B:--------------------------------------------6-5--6-6--|
G:-7-7-----7-----7-7-----7-----7-7-----7------5-5--5-5--|
D:-5-5-----5-----5-5-----5-----5-5-----5----------------|
A:-----0-0---0-0-----0-0---0-0-----0-0---0-0------------|
D:------------------------------------------------------|

e:--------------------------------------------------------|
B:-----------------------6-5-------------------------6-6--|
G:-----------------------5-5-------------------------5-5--|
D:-7-7-----7-----7-7-----------7-7-----7-----7-7----------|
A:-5-5-----5-----5-5-----------5-5-----5-----5-5----------|
D:-----0-0---0-0-----0-0---0-0-----0-0---0-0-----0-0------|

e:-------------------------------------------------|
B:--------------------------------------------6-5--|
G:-7-7-----7-----7-7-----7-----7-7-----7------5-5--|
D:-5-5-----5-----5-5-----5-----5-5-----5-----------|
A:-----0-0---0-0-----0-0---0-0-----0-0---0-0-------|
D:-------------------------------------------------|


e:-----------------------------------|
B:-----------------------------------|
G:-----------------------------------|
D:-3-----5---------------------------|
A:-1-----3----5--3--0-----3--0-------|
D:---------------------6--------6-3--|

e:-------------------------------------------------------------------|
B:-------------------------------------------------------------------|
G:-------------------------------------------------------------------|
D:-------------------------------------------------------------------|
A:-0-----------------3-0-------3-5--3-----------------3-0------------|
D:-0--0-0-0-0-0-0-0--3-0--0-0--3-5--3--0-0-0-0-0-0-0--3-0--0-0-0-0-0-|

e:---------------------------------------------------------------------------|
B:---------------------------------------------------------------------------|
G:---------------------------------------------------------------------------|
D:---------------------------------------------------------------------------|
A:-0-----------------3-0-------3-5--3-----------------5--3--0-----3--0-------|
D:-0--0-0-0-0-0-0-0--3-0--0-0--3-5--3--0-0-0-0-0-0-0-----------6--------6--3-|

e:-------------------------------------------------------------------|
B:-------------------------------------------------------------------|
G:-------------------------------------------------------------------|
D:-------------------------------------------------------------------|
A:-0-----------------3-0-------3-5--3-----------------3-0------------|
D:-0--0-0-0-0-0-0-0--3-0--0-0--3-5--3--0-0-0-0-0-0-0--3-0--0-0-0-0-0-|

e:------------------------------------------------------------------------------|
B:------------------------------------------------------------------------------|
G:------------------------------------------------------------------------------|
D:------------------------------------------------------------------------------|
A:-0-----------------3-0-------3-5--3-----------------5--3--0-----3--0--------0-|
D:-0--0-0-0-0-0-0-0--3-0--0-0--3-5--3--0-0-0-0-0-0-0-----------6--------6--3--0-|

Suggest correction
Give kudos to tab author, rate the tab!
1 2 3 4 5
comments
print report bad tab
guest
Wanna post a correction for this tab? Suggest correction