Oops, an error
Loading. Please wait.

Lamentos De Un Angel Traicionero Tab

version 1
version 1

Whole song

92 views 1 this week
no commentswrite comment
1 2 3 4 5
3 more votes to show rating
add to favorites
×
Save as Personal and add changes to this tab that will be seen only by you. Learn more ›
×
You can save this tab as Personal to edit and correct it or add notes. All changes will be seen only by you. Learn more »
save as personal
new!
launch autoscroll
font size
0
reset
how to read this tab
guitar tuner
Autoscroll
slow
fast
+/-
esc
set tempo
stop
TRANSMETAL
ALBUM-tristeza de lucifer
TAB-lamentos de un angel traicionero
TABER-Ruben o. soto lopez-
cd. victoria tam.

intro acustico*---+----YA ELECTRICO--------------------
es una vez haci y otra con 1 en lugar de cero se repite el circulo +   +
e :---*--------+---3-0-0-0-0-3-----6-0-0-0-0-6--5-0-0-0-0--5--3--0-0-0-0--3--|
B :-0(1)------+------2-2-2-2----|---5-5-5-5-------4-4-4-4--------2-2-2-2-----
G :-0-0-------+------------------------------
D :-2-2-2-----|---------------------------
A :-3---------+----------------------------|
E:----------------------------------
requintos
   +   +   +   +    +   +   +   +     +   +   +   +    +   +   +   +  +
e :----------- ----- --------------*-----------------------------------|   
B :---------------------------------------------------------------
G :--X2)-----X2)--------------|       Fin de ida y vuelta-CON SLIDE-
D :-3-0-5-0-+3-0+5-0-3-2-3-0-5-0-3-0-S+8-7-5+S--
A :---------- ----- --------------*-------------------------------------|
E :---------------------------*-------------------------------------------|


   +   +   +   +     +   +   +   +     +   +   +   +     +   +   +   +  
e :--------3---|---------7-----+----------8-----|---------------7-------|
B :---2222----|---6-66-6-------|--7-7-7-7-----|------6-6-6-6-6--|
G :-----------------|-----------------|-----------------|-----------------|
D :-----------------|-----------------|-----------------|-----------------|
A :-----------------|-----------------|-----------------|-----------------|
E :-----------------|-----------------|-----------------|-----------------|


   +   +   +   +     +   +   +   +     +   +   +   +     +   +   +   +  
e :----------3------|-------5---------|------3----------|-----5-----------|--------6*
B :-----2-22-2------|-------5--------|-------3--------|-------5---------|----------6*
G :-----------------|-------5--------|-------3-------|--------5--------|-----------6*
D :-----------------|-------5-------|--------3----|-----------5------|-------------6*
A :-----------------|-------5------|---------3-|--------------5-|------------------6*
E :-----------------|-------5------|---------3|---------------5----|---------------6*


   +   +   +   +     +   +   +   +     +   +   +   +     +   +   +   +  
e :--------------------------|-----------------|----------------1-0-----|
B :-------7----8----7----/5---7-----3----5----1----3-----1----0-----------|
G :-------7----8----7----'5---7-----3----5----1----3-----1----0-----------|
D :-------------------------|-----------------|--------------------------|
A :-------------------------|-----------------|--------------------------|
E :-------------------------|-----------------|-------------------------|


   +     +   diezes  y DOCES+   +  (CON REQUINTOS DE LA SEGUNDA GUITARRA
e :---------------------------|------------------------|-----------------|
B :-----10-----8-----6-----8--------8-'~---10-|-----------------|------|
G :-----12-----10----8--|-10-------10------12-|-----------------|--------|
D :---------------------------|-----------------------|-----------------|
A :---------------------------|-----------------------|-----------------|
E :---------------------´------|---------------------|-----------------|
   cuando se acaba la parte lenta entra esta--que son las mismas pisadas pero con otro ritmo--
                      diez y cero (se repite sin depegar el doce)*+(ocho)*+(diez)*+
e :------------------------------------|----------|---------------------*--------------
B :------10-0-10-0-10-0-|--8---|--6-0-6-0-6-0----8-0-8-0-8-0---6---8---6--8--10----+
G :---12-*+-------------|-10-----8*+-----------10*+------------8---10--8-10--12----|
D :-----------------------------------|---------|----------------------*-----------|
A :-----------------------------------|----------|---------------------*-----------|
E :----------------------------------|----------|---------------------*------------|

+ requintos

   +   +   +   +     +   +   +   +     +   +   +   +     +   +   +   +  
e :-----------------------------------------------------------------------|
B :------------------------------------------------------------------------|
G :------------------------------------------------------------------------|
D :-----------------------------------------------------------------------|
A :-----3-3-3-3-3--/-5-'~--/-2-2-2-2---/-5--3--5--7------------|-
E :-----------------------------------------------------------------------|


se repite de la primer parte una vez
   +   +   +   +     +   +   +   +     +   +   +   +     +   +   +   +  
e :------------3---|---------7-----+---------8-----|--------------7-------|
B :-------2222----|---6-66-6-------|--7-7-7-7-----|------6-6-6-6-6--|
G :-----------------|-----------------|-----------------|-----------------|
D :-----------------|-----------------|-----------------|-----------------|
A :-----------------|-----------------|-----------------|-----------------|
E :-----------------|-----------------|-----------------|-----------------|


   +   +   +   +     +   +   +   +     +   +   +   +     +   +   +   +  
e :--------3---------5--------3----------|-----5-----------|--------6*
B :--2-22-2----------5--------3--------|-------5---------|----------6*
G :------------------5--------3-------|--------5--------|-----------6*
D :------------------5--------3----|-----------5------|-------------6*
A :------------------5--------3-|--------------5-|------------------6*
E :------------------5--------3|---------------5----|---------------6*

e :-------3---|----------7-----+---------8-----|--------------7--
B :---2222----|---6-66-6-------|--7-7-7-7-----|------6-6-6-6-6--|
G :-----------------|-----------------|-----------------|-----------------|
D :-----------------|-----------------|-----------------|-----------------|
A :-----------------|-----------------|-----------------|-----------------|
E :-----------------|-----------------|-----------------|-----------------|

es todo, esta bien enredoso el pedo, pero nadamas escuchen la rola y 
siganla con los tabs y en corto sale .

POR CIERTO ES MI PRIMER TAB.  SI ME LA SE, PERO PARA ESCRIBIRLA TA BIEN CABRON.
SOBRE
Suggest correction
Give kudos to tab author, rate the tab!
1 2 3 4 5
comments
print report bad tab
guest
Wanna post a correction for this tab? Suggest correction