Oops, an error
Loading. Please wait.

Lamentos De Un Angel Traicionero Tab

version 2
version 2

Whole song

35 views 1 this week
no commentswrite comment
1 2 3 4 5
3 more votes to show rating
add to favorites
launch autoscroll
font size
0
reset
how to read this tab
guitar tuner
Autoscroll
slow
fast
+/-
esc
set tempo
stop
BUENO BANDA.. ESTO ES DEL MEJOR METAL MEXICANO!!

INTRO (ACUSTICO)
E|-----------------------------------
B|----------2----------------2-------
G|----1-2-1---2-1-2----1-2-1---2-1-1-
D|-----------------------------------
A|-----------------------------------
E|--2----------------2---------------

E|----------------------------------
B|----------------------------------
G|---------6----------------6-------
D|---6-7-6---7-6-7----6-7-5---7-6-7-
A|-5----------------5---------------
E|----------------------------------

E|----------------------------------
B|----------------------------------
G|---------6----------------6-------
D|---6-7-6---7-6-7----6-7-5---7-6-7-
A|----------------------------------
E|-5----------------4---------------

E|-----------------------------------
B|----------2----------------2-------
G|----1-2-1---2-1-2----1-2-1---2-1-1-
D|-----------------------------------
A|-----------------------------------
E|--2----------------2---------------

VERSO (SE REPITE 5 VESES)
         X4                   X2
E|------------------|-------------------
B|------------------|-------------------
G|------------------|-------------------
D|------------------|-7-777-7-777-7-7---
A|-4-444-4-444-4-4--|-5-555-5-555-5-5---
E|-2-222-2-222-2-2--|-------------------

E|---------------------------------
B|---------------------------------
G|---------------------------------
D|---------------------------------
A|-7-777-7-777-7-7-4-444-4-444-4-4-
E|-5-555-5-555-5-5-2-222-2-222-2-2-

TIEMPO-2:04
E|----------------------------------------------------------------
B|----------------------------------------------------------------
G|----------------------------------------7-6-4-------7-6-4-------
D|-4-2--4-2-5-44-2--4-2-5-44---4-2-5-44-2-------7-6-4-------7-6-4-
A|---------------------------5------------------------------------
E|----------------------------------------------------------------

TIEMPO-2:55
E|--------------------------------------
B|--------------------------------------
G|--------------------------------------
D|-11--12-11-----------9-7-9-7-9-11-11--
A|-9---10-9---9-999999-7-5-7-5-7-9--9---
E|------------7-777777------------------

TIEMPO-3:19
E|----------------------
B|----------------------
G|----------------------
D|----------------------
A|-45-24----------------
E|-------57-4--5-4-0-2--

TIEMPO-3:43
E|----------------
B|----------------
G|----------------
D|-11-9-7-9-9/11--
A|-9--7-5-7-7/9---
E|----------------

TIEMPO-4:13
E|--------------------------------------------------
B|--------------------------------------------------
G|--------------------------------------------------
D|-11(11)-12-11-9(9)-9/11-9/11-9/11--9-7-9-11-11-11-
A|-9-(9)--10-9?-7(7)-7/9?-7/9?-7/9---7-5-7-9--9--9--
E|--------------------------------------------------

TIEMPO-4:40
E|------------------------------
B|------------------------------
G|------------------------------
D|-7-7-77-7-999-6-6-66-97-9/11--
A|------------------------------
E|------------------------------

ESTA TABLA SE LA DEDICO A MIS CAMARADA EL ¡¡TUROK!!
QUE ES FRESA PERO CHIDO? FERCH?.
Suggest correction
Give kudos to tab author, rate the tab!
1 2 3 4 5
comments
print report bad tab
guest
You may want to rate the tab now too:
select rating
Wanna post a correction for this tab? Suggest correction