Oops, an error
Loading. Please wait.

Muerte Violenta Tab

107 views 3 this week
no commentswrite comment
1 2 3 4 5
3 more votes to show rating
add to favorites
×
Save as Personal and add changes to this tab that will be seen only by you. Learn more ›
×
You can save this tab as Personal to edit and correct it or add notes. All changes will be seen only by you. Learn more »
save as personal
new!
launch autoscroll
font size
0
reset
how to read this tab
guitar tuner
Autoscroll
slow
fast
+/-
esc
set tempo
stop
Muerte Violenta 
Transmetal
El LLamado de la Hembra

Arranged by Edgar Corona
Transcripcion por Edgar Corona.
Los Angeles, CA
e-mail..
si necesitan una tab de estos monos...

Gtr I & 2 tunings (D A D G B E) 

 4/4
  Gtr I & 2
  
Riff A
|----------------------------------------------------------|
|----------------------------------------------------------|
|----------------------------------------------------------|
|-9-----9-----9-----7---6-------9-----9-----9-----14-12----|
|-9-----9-----9-----7---6-------9-----9-----9-----14-12----|
|-7-0-0-7-0-0-7-0-0-5-0-4-0-0-0-7-0-0-7-0-0-7-0-0-12-10----|

Riff B
|----------------------|
|----------------------|
|----------------------|
|-7---6---5---4---2----|
|-7---6---5---4---2----|
|-5-0-4-0-3-0-2-0-0----|


Riff B2
|------|
|------|
|------|
|-2----|
|-2----|
|-0----|

Riff C
|---------------|
|---------------|
|---------------|
|-2--6-4-6-2----|
|-2--6-4-6-2----|
|-0--4-2-4-0----|


  Riff D
|----------------------------------------------------------------|
|----------------------------------------------------------------|
|----------------------------------------------------------------|
|-------------------------7-6---------------------------14-12----|
|-------------------------7-6---------------------------14-12----|
|-0-0-0-0-0-0-0-0-0-0-0-0-5-4-0-0-0-0-0-0-0-0-0-0-0-0-0-12-10----|

Riff E
|---------------------------|
|---------------------------|
|---------------------------|
|-3-----5-----4-----5\-6----|
|-3-----5-----4-----5\-6----|
|-1-0-0-3-0-0-2-0-0-3\-4----|

Riff F
|------------------------------------------------------------------|
|------------------------------------------------------------------|
|------------------------------------------------------------------|
|-----------------------------7-9---------------------------9-7----|
|-----------------------------5-7---------------------------7-5----|
|-0-0-0-0-0-0-0-0-0-0-0-0-0-0-----0-0-0-0-0-0-0-0-0-0-0-0-0--------|


Outro cord.
|------|
|------|
|------|
|-9----|
|-9----|
|-7----|


Progression de la rola..................

Riff A  2x
Riff A  2x con el verso
Riff B  4x conocido por tu rebeldia.........
Riff A  2x con el coro
Riff A  2x 
Riff B  4x conocido por tu rebeldia........
     B2
Riff C  4x
Riff D  4x
Riff E  4x muerte violenta......
Riff D  4x
Riff E  4x muerte violenta......
Riff F
Riff A  2x
Riff A  2x con el verso
Riff B  4x tu muerte vilenta
Riff A  2x con el verso
Outro cord.......

Los solos se los improvisan ustedes porque meda gueva....
Suggest correction
Give kudos to tab author, rate the tab!
1 2 3 4 5
comments
print report bad tab
guest
Wanna post a correction for this tab? Suggest correction