Oops, an error
Loading. Please wait.

Reino Maldito Tab

47 views 1 this week
no commentswrite comment
1 2 3 4 5
3 more votes to show rating
add to favorites
launch autoscroll
font size
0
reset
how to read this tab
guitar tuner
Autoscroll
slow
fast
+/-
esc
set tempo
stop
Help us to improve Ultimate-Guitar.com Take our survey!
×
TRANSCRIBED BY RUDY GUZMAN
guzman_84@


solo 1
eb:-15p12----12-15p12-15p12----12-15p12-17p12----12-17p12-17p12----12-17-12----------------|
Bb:-------14----------------14----------------14----------------14----------14-12-12h14p12-|
Gb:----------------------------------------------------------------------------------------|
Db:----------------------------------------------------------------------------------------|
Ab:----------------------------------------------------------------------------------------|
Eb:----------------------------------------------------------------------------------------|
                                                     repeat
eb:-------------------------------------20b~~~~~\-|----19h21p19--|
Bb:-14b~~~--------12b~~~--------------------------|-20-----------|
Gb:---------15p14--------13~~~~-12~~~~------------|--------------|
Db:-----------------------------------------------|--------------|
Ab:-----------------------------------------------|--------------|
Eb:-----------------------------------------------|--------------|

solo 2                                                            bar/\/\/\/
:-----------------------------------------------------------------------------|
:-20-19-20-19-----------------------------------------------------5nh---------|
:-------------20-19-20-19-20-19-20-19--20-18-19-19b--12--12b~~~~--------------|
:-----------------------------------------------------------------------------|
:-----------------------------------------------------------------------------|
:-----------------------------------------------------------------------------|

:----17-20-17h20p17-|----------------------------------------------------------------------|
:-19----------------|-19p17-19p17----------------------------------------------------------|
:-------------------|-------------19p17-19p17-15p13-15p13-14p12-14p12-12p10-12p10-10p9-10p9|
:-------------------|----------------------------------------------------------------------|
:-------------------|----------------------------------------------------------------------|
:-------------------|----------------------------------------------------------------------|
                                            bar                  3 times
:--------------------------------------------------------------|-16h19p16----|-------------|
:----------------------------------------------------------/18-|----------18-|-16h18p16----|
:-9p7-7p5-7p5-5p4-5p4-4p2-4p2--2p0-2p0--2-3--------------------|-------------|----------18-|
:--------------------------------------------0--0h2p0h2p0------|-------------|-------------|
:--------------------------------------------------------------|-------------|-------------|
:--------------------------------------------------------------|-------------|-------------|

:-----------------------|
:-----------------------|
:-16-18b~~~~~\----------|
:-----------------------|
:-------------------2-2-|
:-------------------0-0-|
Suggest correction
Give kudos to tab author, rate the tab!
1 2 3 4 5
comments
print report bad tab
guest
You may want to rate the tab now too:
select rating
Wanna post a correction for this tab? Suggest correction