Oops, an error
Loading. Please wait.

Santisimo Sufrimiento Tab

version 1
version 1

Whole song

43 views 1 this week
no commentswrite comment
1 2 3 4 5
3 more votes to show rating
add to favorites
×
Save as Personal and add changes to this tab that will be seen only by you. Learn more ›
×
You can save this tab as Personal to edit and correct it or add notes. All changes will be seen only by you. Learn more »
save as personal
new!
launch autoscroll
font size
0
reset
how to read this tab
guitar tuner
Autoscroll
slow
fast
+/-
esc
set tempo
stop
A---1---3---5---3---3---5---7---5---5---7---8---7---10---10---10---8---8---8---   x3

A---1---3---5---3---3---5---7---5---5---7---8---7---10---10---10---8---8---8---7---7---7---5---


D5               E5     F5     G5 / F5
Sensaciones de tristeza 
D5                  E5             F5    G5 / F5
Te atormentan desde tu cruz
D5                   E5           F5     G5 / F5
Yo no acepto mas tu dolor
D5                  E5          F5     G5 / F5
Cubierto en tu mística luz
D5              E5               F5  G5 / F5
Tu pena se apodero de mi
D5          E5          F5       G5 / F5
Cuando fuiste colgado
D5             E5         F5   G5 / F5
En medio de dos rufianes
D5             E5          F5    G5 / F5
Solo para ser asesinado


D  --0----0----2----3---------0---2---3--------3---2---0---------         x2
A  -------------------------3----------------1-----------------3-s-5


D5            E5            F5            G5 / F5
Tu sacrificcion es mi esclavitud
D5       E5       F5           G5 / F5
Y tu imagen una fijación
D5         E5               F5    G5 / F5
Solo he aprendido de ti
D5                 C5    A#5 A5
A malgastar  MI compasión


D  --0----0----2----3---------0---2---3--------3---2---0---------         x2
A  -------------------------3----------------1-----------------3-s-5


D5     E5             F5    G5 7 F5
Tu corona de espinas
D5           E5      F5   G5 / F5
Debilita mi cordura
D5                   E5      F5      G5 / F5
Bañado en tu mística sangre
D5                 C5 A#5 A5
Me conduce a la locura


E -------------1-------------------3-------------------4------------------------------------------
B ---------3------------------5------------------6---------------------8-----------------6------
G -----2-----------------4------------------5---------------------7----------------5------------
D---3---------------5------------------6---------------------8----------------6-----------------


D5              E5            F5    G5 / F5
Incesante desde tu cruz
D5          E5            F5      G5 / F5
Percibo tu sufrimiento
D5          E5             F5          G5 / F5
Fuiste clavado y torturado
D5               E5          F5        G5 / F5         
Por lo bello del firmamento
D5              E5              F5       G5 / F5  
Tu cadáver se vuelve polvo
D5              E5         F5       G5 / F5
Y yo solo veo tu derrota
D5                E5           F5     G5 / F5
En espera sobre tu regreso
D5                 E5             F5      G5 / F5
La decepción en mi corazón

Es mas

A ---5---5---7---8---5---5---7---8---5---5---7---8---8-s-10---8---7---8---7---3-s-5---  x4


D              C
Santísimo sufrimiento
A# / A     A---7-h-8---7---8---8-s-10---8---7---5---
Santísimo percibo desde tu cruz

A ---5---5---7---8---5---5---7---8---5---5---7---8---8-s-10---8---7---8---7---3-s-5---  x4

D              C
Santísimo sufrimiento
A# / A       A---7-h-8---7---8---8-s-10---8---7---5---
Santísimo percibo desde tu cruz

G ---7---7---7-h-8---7-h-8---7-h-8---5---5---5-h-7---5-h-7---5-h-7---3---3---3-h-5---3-h-5---
    
G ---3-h-5---2---

A---7-h-8---7---8---8-s-10---8---7---5---

G---7---7---7---7---7---7---7---7---5---5---5---5---5---5---5---5---3---3---3---3---3---3---3---   3---5-----

A---7-h-8---7---8---8-s-10---8---7---5---

A ---5---5---7---8---5---5---7---8---5---5---7---8---8-s-10---8---7---8---7---3-s-5---  x4

Percibo desde tu cruz

A ---5---5---7---8---5---5---7---8---5---5---7---8---8-s-10---8---7---8---7---3-s-5---  x4

A ---5---5---5---5---7---7---7---7---8---8---8---8---10---

A---7-h-8---7---8---8-s-10---8---7---5---
Percibo desde tu cruz
Suggest correction
Give kudos to tab author, rate the tab!
1 2 3 4 5
comments
print report bad tab
guest
Wanna post a correction for this tab? Suggest correction