Oops, an error
Loading. Please wait.

Santisimo Sufrimiento Tab

version 2
version 2

Whole song

53 views 1 this week
no commentswrite comment
1 2 3 4 5
3 more votes to show rating
add to favorites
launch autoscroll
font size
0
reset
how to read this tab
guitar tuner
Autoscroll
slow
fast
+/-
esc
set tempo
stop
Help us to improve Ultimate-Guitar.com Take our survey!
×
AJUERSAS QUE SI LA BANDA DEL FERCH PA USTEDES.....
DENLE AL BUEN METAL MEXICANO.... ¡¡ME AGREGAN A SU FACEBOOK!!...

INTRO?

D|-------------------------------------------
A|-------------------------------------------
F|-------------------------------------------
C|--------------5-3h4p3---4-2h3p2---9-----7--
G|-22-7-5h6p5-55--------44-------------------
D|-00---------33--------22--------77----55---

TIEMPO-0:20 (MUTEANDO CUERDAS?..)
D|----------------------------------------------
A|----------------------------------------------
F|----------------------------------------------
C|----------------------------------------------
G|-2222222222555555555444444444999777-----------
D|-0000000000333333333222222222777555-----------

TIEMPO-O:38 (SIN MUTEAR LAS CUERDAS)
D|--------------------------------
A|--------------------------------
F|--------------------------------
C|--------------------------------
G|-2-22-25-55-54-999777-----------
D|-0-00-03-33-32-777555-----------

(TIEMPO-0:56)
D|----------------------------------------------
A|----------------------------------------------
F|----------------------------------------------
C|-2-245---45----5402---------------------------
G|------5----3--3-------------------------------
D|----------------------------------------------

TIEMPO-1:14 (COMO HAY DOS GUITARROS UNO TOCA?..)
D|---------------------------------------------------------------
A|---------------------------------------------------------------
F|----------------4*----------------4*----------------4*-5-4-----
C|-2-2224-4445-555---2-2224-4445-555---2-2224-4445-555-------5-2-
G|---------------------------------------------------------------
D|---------------------------------------------------------------

(Y EL OTRO?.)
D|--------------------------------------------------------------
A|--------------------------------------------------------------
F|--------------------------------------------------------------
C|----------------4-----------------4-----------------4-5-4-----
G|-2-2224-4445-5552--2-2224-4445-5552--2-2224-4445-5552-3-2-5-2-
D|-0-0002-2223-333---0-0002-2223-333---0-0002-2223-333------3-0-

TIEMPO-1:31
D|----------------------------------------------
A|----------------------------------------------
F|----------------------------------------------
C|-2-245---45----5402---------------------------
G|------5----3--3-------------------------------
D|----------------------------------------------

TIEMPO-1:49 (GUITARRA 1???)
D|---------------------------------------------------------------
A|---------------------------------------------------------------
F|----------------4*----------------4*----------------4*-5-4-----
C|-2-2224-4445-555---2-2224-4445-555---2-2224-4445-555-------5-2-
G|---------------------------------------------------------------
D|---------------------------------------------------------------
            (GUITARRA 2???)
D|--------------------------------------------------------------
A|--------------------------------------------------------------
F|--------------------------------------------------------------
C|----------------4-----------------4-----------------4-5-4-----
G|-2-2224-4445-5552--2-2224-4445-5552--2-2224-4445-5552-3-2-5-2-
D|-0-0002-2223-333---0-0002-2223-333---0-0002-2223-333------3-0-

*-TIEMPO-2:05 (SOLO TOCA EL BAJO??)-*

TIEMPO-2:35
D|----------------------------------------------
A|----------------------------------------------
F|----------------------------------------------
C|----------------------------------------------
G|-2222-2225-2224---9---7-----------------------
D|-0000-0003-0002-007-005-----------------------

TIEMPO-2:48 (MUTEANDO CUERDAS?)
D|----------------------------------------------
A|----------------------------------------------
F|----------------------------------------------
C|----------------------------------------------
G|-2222222222555555555444444444999777-----------
D|-0000000000333333333222222222777555-----------

TIEMPO-3:13 (SIN MUTEAR LAS CUERDAS)
D|--------------------------------
A|--------------------------------
F|--------------------------------
C|--------------------------------
G|-2-22-25-55-54-999777-----------
D|-0-00-03-33-32-777555-----------

TIEMPO-3:29
D|----------------------------------------------
A|----------------------------------------------
F|----------------------------------------------
C|-2-2452-2452-24575454-4h5p402-----------------
G|----------------------------------------------
D|----------------------------------------------

TIEMPO-4:16(SANTISIMO SUFRIMENTO???.)
D|----------------------------------------------
A|----------------------------------------------
F|----------------------------------------------
C|-2-222----------------------------------------
G|------5-5553-3332~~-5-4-5-7-5-4-2-------------
D|--------------------3-2-3-5-3-2-0-------------

TIEMPO-4:25
D|---------------------------------------------------------------
A|---------------------------------------------------------------
F|----9-7---7-------------7-5---5-----------5-3---3--------------
C|--------9---9-7-9-7---------7---5-7-5-7-------5---5-3-5-3------
G|-77------------------55----------------33------------------2~~-
D|---------------------------------------------------------------

D|-----------------------------------------------------------
A|-----------------------------------------------------------
F|--------------------9------9------7------7------5------5---
C|-----------------------------------------------------------
G|-5-4-5-7-5-4-2--7-77---7-77---5-55---5-55---3-33---3-33--2-
D|-3-2-3-5-3-2-0---------------------------------------------

D|-------------------------------------------------
A|-------------------------------------------------
F|-------------------------------------------------
C|---------------2-2452-2452-24575454h5p4-02-------
G|-5-4-5-7-5-4-2-----------------------------------
D|-3-2-3-5-3-2-0-----------------------------------

TIEMPO-4:50
D|----------------------------------------------------------
A|----------------------------------------------------------
F|----------------------------------------------------------
C|-2-2452-2452-24575454h5p4-02~2224~4445~5557~--------------
G|--------------------------------------------5-4-5-7-5-4-2-
D|--------------------------------------------3-2-3-5-3-2-0-

ESTA ROLA SE LA DEDICO A MI HERMOSA HECHIZERA.....
QUE ME COSTO UN POCO SACARLA PERO ELLA ME INSPIRA...
¡¡TE QUIERO MIRI!!
Suggest correction
Give kudos to tab author, rate the tab!
1 2 3 4 5
comments
print report bad tab
guest
You may want to rate the tab now too:
select rating
Wanna post a correction for this tab? Suggest correction