Oops, an error
Loading. Please wait.

Zona Muerta Tab

57 views 1 this week
no commentswrite comment
1 2 3 4 5
3 more votes to show rating
add to favorites
launch autoscroll
font size
0
reset
how to read this tab
guitar tuner
×
Best way to learn
"Zona Muerta"
Autoscroll
slow
fast
+/-
esc
set tempo
stop
TRANSCRIBED BY RUDY GUZMAN
guzman_84@


intro
eb:-------------------|
Bb:-------------------|
Gb:-------------------|
Db:-----------6----9--|
Ab:--7---5----4----7--|
Eb:--5---3------------|

GT1
eb:---------------|
Bb:---------------|
Gb:---------------|
Db:---------4---5-|
Ab:-3---1---2---7-|
Eb:-5---3---------|

GT2
eb:-------------|
Bb:-------------|
Gb:-------------|
Db:-------2---5-|
Ab:-3--1--------|
Eb:-------------|

solo                repeat            repeat                 repeat            repeat
eb:-------------|---------------|------------------|------|---------------|------------|
Bb:-------------|---------------|-1h3p1h3p1h3p1h3p1|-/13\-|---------------|-1p0h1p0/9\-|
Gb:-----/14~~~~-|-0h2p0h2p0h2p0-|------------------|------|-0h2p0h2p0h2p0-|------------|
Db:-7\----------|---------------|------------------|------|---------------|------------|
Ab:-------------|---------------|------------------|------|---------------|------------|
Eb:-------------|---------------|------------------|------|---------------|------------|

                   repeat            repeat                                 repeat
eb:-------------|---------------|------------------|--------------------|---------------|
Bb:-------------|---------------|-1h3p1h3p1h3p1h3p1|-/16-16ah-16ah-16ah-|---------------|
Gb:-----/14~~~~-|-0h2p0h2p0h2p0-|------------------|--------------------|-0h2p0h2p0h2p0-|
Db:-7\----------|---------------|------------------|--------------------|---------------|
Ab:-------------|---------------|------------------|--------------------|---------------|
Eb:-------------|---------------|------------------|--------------------|---------------|

     repeat
eb:------------|
Bb:-1p0h1p0/9\-|
Gb:------------|
Db:------------|
Ab:------------|
Eb:------------|

GT1
eb:---------------|
Bb:---------------|
Gb:---------------|
Db:---------4---5-|
Ab:-3---1---2---7-|
Eb:-5---3---------|

GT2
eb:-------------|
Bb:-------------|
Gb:-------------|
Db:-------2---5-|
Ab:-3--1--------|
Eb:-------------|

GT1
eb:---------------|
Bb:---------------|
Gb:---------------|
Db:---------4---5-|
Ab:-3---1---2---7-|
Eb:-5---3---------|

GT2
eb:-------------|
Bb:-------------|
Gb:-------------|
Db:-------2---5-|
Ab:-3--1--------|
Eb:-------------|

eb:---------------|
Bb:---------------|
Gb:---------------|
Db:-9-9--9-9--9-9-|
Ab:-7-7--7-7--7-7-|
Eb:---------------|


eb:--------------|
Bb:--------------|
Gb:--------------|
Db:--------------|
Ab:-7-8-7--5~~~~-|
Eb:-5-6-5--3~~~~-|

eb:-----------|
Bb:-----------|
Gb:-----------|
Db:-----------|
Ab:-7-8-7--10-|
Eb:-5-6-5--8--|

eb:--------------|
Bb:--------------|
Gb:--------------|
Db:--------------|
Ab:-7-8-7--5~~~~-|
Eb:-5-6-5--3~~~~-|

eb:-----------|
Bb:-----------|
Gb:-----------|
Db:-----------|
Ab:-7-8-7--10-|
Eb:-5-6-5--8--|

eb:--------------|
Bb:--------------|
Gb:--------------|
Db:--------------|
Ab:-7-8-7--5~~~~-|
Eb:-5-6-5--3~~~~-|

eb:-----------|
Bb:-----------|
Gb:-----------|
Db:-----------|
Ab:-7-8-7--10-|
Eb:-5-6-5--8--|

eb:--------------|
Bb:--------------|
Gb:--------------|
Db:--------------|
Ab:-7-8-7--5~~~~-|
Eb:-5-6-5--3~~~~-|

eb:-----------|
Bb:-----------|
Gb:-----------|
Db:-----------|
Ab:-7-8-7--10-|
Eb:-5-6-5--8--|

eb:--------------|
Bb:--------------|
Gb:--------------|
Db:--------------|
Ab:-7-8-7--5~~~~-|
Eb:-5-6-5--3~~~~-|

eb:-----------|
Bb:-----------|
Gb:-----------|
Db:-----------|
Ab:-7-8-7--10-|
Eb:-5-6-5--8--|


eb:---------------|
Bb:---------------|
Gb:---------------|
Db:-9-9--9-9--9-9-|
Ab:-7-7--7-7--7-7-|
Eb:---------------|

eb:--------------|
Bb:--------------|
Gb:--------------|
Db:--------------|
Ab:-7-8-7--5~~~~-|
Eb:-5-6-5--3~~~~-|

eb:-----------|
Bb:-----------|
Gb:-----------|
Db:-----------|
Ab:-7-8-7--10-|
Eb:-5-6-5--8--|

eb:--------------|
Bb:--------------|
Gb:--------------|
Db:--------------|
Ab:-7-8-7--5~~~~-|
Eb:-5-6-5--3~~~~-|

eb:-----------|
Bb:-----------|
Gb:-----------|
Db:-----------|
Ab:-7-8-7--10-|
Eb:-5-6-5--8--|


eb:---------------|
Bb:---------------|
Gb:---------------|
Db:-9-9--9-9--9-9-|
Ab:-7-7--7-7--7-7-|
Eb:---------------|


:----------------|
:----------------|
:----------------|
:----5-4--4-5-4--|
:-2--3-2--2-3-2--|
:-0--------------|

eb:-------------|
Bb:-------------|
Gb:-------------|
Db:---------4-5-|
Ab:-2--5-4--2-3-|
Eb:-0--3-2------|


:----------------|
:----------------|
:----------------|
:----5-4--4-5-4--|
:-2--3-2--2-3-2--|
:-0--------------|

eb:-------------|
Bb:-------------|
Gb:-------------|
Db:---------4-5-|
Ab:-2--5-4--2-3-|
Eb:-0--3-2------|

verse
:----------------|
:----------------|
:----------------|
:----------------|
:-2--6--5--5-6-5-|
:-0--8--7--7-8-7-|

:--------------|
:--------------|
:--------------|
:--------------|
:-2-3--0--5--6-|
:-0-1--2--7--8-|
  
:----------------|
:----------------|
:----------------|
:----------------|
:-2--6--5--5-6-5-|
:-0--8--7--7-8-7-|

:--------------|
:--------------|
:--------------|
:--------------|
:-2-3--0--5--6-|
:-0-1--2--7--8-|

:----------------|
:----------------|
:----------------|
:----------------|
:-2--6--5--5-6-5-|
:-0--8--7--7-8-7-|

:--------------|
:--------------|
:--------------|
:--------------|
:-2-3--0--5--6-|
:-0-1--2--7--8-|

:---|
:---|
:---|
:---|
:-2-|
:-0-|
  
   8 times
:----------------------------|
:----------------------------|
:----------------------------|
:--------------------10--4-5-|
:--------------------8---2-3-|
:-0-000-000-000-0-00---------|
  
GT1
:----------------------------------|
:----------------------------------|
:----------------------------------|
:-----7p5------8p7-----7p5-------7-|
:----------------------------------|
:-0-0------0-0-----0-0-----0-0-0---|
GT2 
:----------------------------------|
:----------------------------------|
:----------------------------------|
:----------------------------------|
:-----9p7-----10p9-----9p7-------9-|
:-0-0-----0-0------0-0-----0-0-0---|
 
GT1
:----------------------------------|
:----------------------------------|
:----------------------------------|
:-----7p5------8p7-----7p5-------7-|
:----------------------------------|
:-0-0------0-0-----0-0-----0-0-0---|
GT2 
:----------------------------------|
:----------------------------------|
:----------------------------------|
:----------------------------------|
:-----9p7-----10p9-----9p7-------9-|
:-0-0-----0-0------0-0-----0-0-0---|

GT1
:----------------------------------|
:----------------------------------|
:----------------------------------|
:-----7p5------8p7-----7p5-------7-|
:----------------------------------|
:-0-0------0-0-----0-0-----0-0-0---|
GT2 
:----------------------------------|
:----------------------------------|
:----------------------------------|
:----------------------------------|
:-----9p7-----10p9-----9p7-------9-|
:-0-0-----0-0------0-0-----0-0-0---|

 
:--------------|
:--------------|
:--------------|
:-9--7--12--10-|
:-7--5--10--8--|
:--------------|
  
   6 times
:----------------------------|
:----------------------------|
:----------------------------|
:--------------------10--4-5-|
:--------------------8---2-3-|
:-0-000-000-000-0-00---------|

   4 times
:----------------------------------|
:----------------------------------|
:----------------------------------|
:----------------------------------|
:-----7p5------8p7-----7p5-------7-|
:-0-0------0-0-----0-0-----0-0-0---|

GT1
:----------------------------------|
:----------------------------------|
:----------------------------------|
:-----7p5------8p7-----7p5-------7-|
:----------------------------------|
:-0-0------0-0-----0-0-----0-0-0---|
GT2 
:----------------------------------|
:----------------------------------|
:----------------------------------|
:----------------------------------|
:-----9p7-----10p9-----9p7-------9-|
:-0-0-----0-0------0-0-----0-0-0---|
 
GT1
:----------------------------------|
:----------------------------------|
:----------------------------------|
:-----7p5------8p7-----7p5-------7-|
:----------------------------------|
:-0-0------0-0-----0-0-----0-0-0---|
GT2 
:----------------------------------|
:----------------------------------|
:----------------------------------|
:----------------------------------|
:-----9p7-----10p9-----9p7-------9-|
:-0-0-----0-0------0-0-----0-0-0---|

GT1
:----------------------------------|
:----------------------------------|
:----------------------------------|
:-----7p5------8p7-----7p5-------7-|
:----------------------------------|
:-0-0------0-0-----0-0-----0-0-0---|
GT2 
:----------------------------------|
:----------------------------------|
:----------------------------------|
:----------------------------------|
:-----9p7-----10p9-----9p7-------9-|
:-0-0-----0-0------0-0-----0-0-0---|
 
GT1
:----------------------------------|
:----------------------------------|
:----------------------------------|
:-----7p5------8p7-----7p5-------7-|
:----------------------------------|
:-0-0------0-0-----0-0-----0-0-0---|
GT2 
:----------------------------------|
:----------------------------------|
:----------------------------------|
:----------------------------------|
:-----9p7-----10p9-----9p7-------9-|
:-0-0-----0-0------0-0-----0-0-0---|


   4 times
:----------------------------------|
:----------------------------------|
:----------------------------------|
:----------------------------------|
:-----7p5------8p7-----7p5-------7-|
:-0-0------0-0-----0-0-----0-0-0---|

      4 times
:----------------------------------------------------|
:----------------------------------------------------|
:----------------------------------------------------|
:7-----------5-----------7---------------------------|
:5-----------3-----------5-7h8p7h8p7h8p7h8p7h8p7h8p7-|
:--0-0-0-0-0---0-0-0-0-0-----------------------------|
  
GT1
:----------------------------------|
:----------------------------------|
:----------------------------------|
:-----7p5------8p7-----7p5-------7-|
:----------------------------------|
:-0-0------0-0-----0-0-----0-0-0---|
GT2 
:----------------------------------|
:----------------------------------|
:----------------------------------|
:----------------------------------|
:-----9p7-----10p9-----9p7-------9-|
:-0-0-----0-0------0-0-----0-0-0---|
 
GT1
:----------------------------------|
:----------------------------------|
:----------------------------------|
:-----7p5------8p7-----7p5-------7-|
:----------------------------------|
:-0-0------0-0-----0-0-----0-0-0---|
GT2 
:----------------------------------|
:----------------------------------|
:----------------------------------|
:----------------------------------|
:-----9p7-----10p9-----9p7-------9-|
:-0-0-----0-0------0-0-----0-0-0---|

GT1
:----------------------------------|
:----------------------------------|
:----------------------------------|
:-----7p5------8p7-----7p5-------7-|
:----------------------------------|
:-0-0------0-0-----0-0-----0-0-0---|
GT2 
:----------------------------------|
:----------------------------------|
:----------------------------------|
:----------------------------------|
:-----9p7-----10p9-----9p7-------9-|
:-0-0-----0-0------0-0-----0-0-0---|
 
GT1
:----------------------------------|
:----------------------------------|
:----------------------------------|
:-----7p5------8p7-----7p5-------7-|
:----------------------------------|
:-0-0------0-0-----0-0-----0-0-0---|
GT2 
:----------------------------------|
:----------------------------------|
:----------------------------------|
:----------------------------------|
:-----9p7-----10p9-----9p7-------9-|
:-0-0-----0-0------0-0-----0-0-0---|

:--------------|
:--------------|
:--------------|
:-9--7--12--10-|
:-7--5--10--8--|
:--------------|
Suggest correction
Give kudos to tab author, rate the tab!
1 2 3 4 5
comments
print report bad tab
guest
You may want to rate the tab now too:
select rating
Wanna post a correction for this tab? Suggest correction