Oops, an error
Loading. Please wait.

Diamonds And Guns Bass

version 1
version 1

Whole song

Interactive

2,124 views 1 this week
1 commentread comment
1 2 3 4 5
x 7
add to favorites
launch autoscroll
font size
0
reset
guitar tuner
×
Best way to learn
"Diamonds And Guns"
Autoscroll
slow
fast
+/-
esc
set tempo
stop
Author
-------------------------------------------------------------------------------
			     Diamonds and Guns - Transplants
-------------------------------------------------------------------------------

Tabbed By : Jacob Bartlett
e-mail: acobjoe@subpatch.com

Tuning:EADG

REALLY easy song, and very repetative. But some songs just sound awesome like that.

Scroll down to see the order you play it in.

Main Riff
G|---------|
D|---------|
A|-3-3---1-|
E|-----3---|x4

No bass during first part of the verse.

Verse (halfway through)
G|---------|
D|---------|
A|-3-3-----|
E|---------|x4

Chorus (it's a wicked world that we live in...)
G|--------------------------------------|
D|--------------------------------------|
A|-5----0----5----0----5----0----5----0-|
E|--------------------------------------|

3rd Verse (halfway through)
G|---------|
D|---------|
A|-3-3---1-|
E|-----3---|x4

Order

Main Riff
Verse
Chorus
Main Riff
Verse x2
Chorus
Main Riff
3rd Verse
Chorus
Main Riff x3
Chorus
Main Riff

And That's It! Listen to the song to know when you're spossed to play. 
Any questions or comments feel free to email me.

| /  slide up
| \  slide down
| h  hammer-on
| p  pull-off
| ~  vibrato
| +  harmonic
| x  Mute note
===============================================================================
Suggest correction
comments
print report bad tab
1 comment total.
0 reply
ty36 10 Dec 10, 2008 12:14 AM

basicly it
tho main riff sounds better as:
A---3-3---1/2--
E-------3------

guest
You may want to rate the tab now too:
select rating
Wanna post a correction for this tab? Suggest correction