Oops, an error
Loading. Please wait.

Dj Dj Tab

version 1
version 1

Whole song

Interactive

9,854 views 12 this week
3 commentsread comments
1 2 3 4 5
excellent!
x 9
add to favorites
launch autoscroll
font size
0
reset
how to read this tab
guitar tuner
Autoscroll
slow
fast
+/-
esc
set tempo
stop
Help us to improve Ultimate-Guitar.com Take our survey!
×
Contributor
-------------------------------------------------------------------------------
                             Dj Dj - Transplants
-------------------------------------------------------------------------------

Tabbed by: ZeroIsGreatMan
Tuning: EADGBe

Transplants are:
Rob "SR" Aston - Vocals: New Guy 
Tim Armstrong - Vocals, Guitar: Rancid
Travis Barker - Drums : Blink 182

Intro/Fill/Outro: "Watch me now!"
e|------------------------------------------------------|
B|------------------------------------------------------|
G|-9---7-8-9----7-8-9----7-8/-9-\8-/9-\8-/9-\8-/9-\8-/9-|(x2)
D|-9-9-7-8-9--9-7-8-9--9-7-8/-9-\x-/x-\x-/x-\x-/x-\x-/9-|
A|-7-9-5-6-7--9-5-6-7--9-5-6/-7-\6-/7-\6-/7-\6-/7-\6-/7-|
E|---7--------7--------7--------------------------------|

Verse: "Nobody move, and nobody gets hurt..."
e|--------------------|
B|--------------------|
G|--------------------|
D|-9-9----------------|
A|-7-7--7-7--9-9--7-7-|
E|------5-5--7-7--5-5-|

Chorus:
 "We're gonna make it on our own, we don't need anyone, lord knows we don't need you, yeah"
e|----------------------------------------------------|
B|----------------------------------------------------|
G|-----9---9---------------------9---9----------------|
D|---9---9---9------7---7------9---9---9------9---9---|
A|-7--------------7---7---7--7--------------9---9---9-|
E|--------------5-------------------------7-----------|

Solo:
e|------------------------------------------------------------------|
B|------------------------------------------------------------------|
G|-9--11-9----9/11-12-12-12-12-11-\9--------------------------------|
D|---------12------------------------12p-11p-9--------------------9-|
A|---------------------------------------------12p-10p-9--9----11---|
E|----------------------------------------------------------12------|

Solo: (Cont.)
e|-------------------------------------|
B|-------------------------------------|
G|-----------------------------9--11-9-|
D|----------------------9-11-9---------|
A|-9-10-9-10-9-10--9-------------------|
E|-------------------12----------------|


| /  slide up
| \  slide down
| h  hammer-on
| p  pull-off
| ~  vibrato
| +  harmonic
| x  Mute note

Had to make this tab, the other one was too wrong and didn't have a solo, so here
it is, solo and all. Sorry if I didn't tell you what to play and when, but if you
hear it enough times, you will win.
===============================================================================
comments
print report bad tab
3 comments total.
0 reply
Horace 99 wrote on May 2 2005, 12:00 am

Excellent (five stars)

0 reply
warfarenator 48 wrote on August 4 2007, 05:31 am

great tab!

0 reply
Malakiancopycat 501 wrote on October 11 2008, 10:40 am

lol i love how everyone came from good bands but skinhead rob's "the new guy" lol

I want to post or [tab]
guest
You may want to rate the tab now too:
select rating
Please do not post tabs as comments. Select "correction" instead!