Oops, an error
Loading. Please wait.

Dj Dj bass

version 4
version 4

Whole song

Interactive

298 views 1 this week
no commentswrite comment
1 2 3 4 5
3 more votes to show rating
add to favorites
×
Save as Personal and add changes to this tab that will be seen only by you. Learn more ›
×
You can save this tab as Personal to edit and correct it or add notes. All changes will be seen only by you. Learn more »
launch autoscroll
font size
0
reset
guitar tuner
edit
Autoscroll
slow
fast
+/-
esc
set tempo
stop
Author
Difficulty
This tab is read top line(top string) to bottom line(bottom string)this is definatley 
right way to play DJ DJ but strumming is important

intro
g/----7---------7---------7-----------------|
d/-7-----5-6-7-----5-6-7-----5-6-7--7-6-7-6-|
a/------------------------------------------|     x2
e/------------------------------------------|

verse
g/-----55--77---55--------|
d/-77---------------------|
a/------------------------|     x4
e/------------------------|

chorus
g/---------------0---------|
d/--4~-4/2~--0~----2~------|
a/-------------------------|   x2
e/-------------------------|

intro   x2

(robs verse)  play the verse 4 times
(tims verse)  you can choose to not to play it up till tim impoliteley sings f**k the 
back stabbing c***s lol then you play the verse

chorus x 2

play the verse over tims solo

chorus x2

verse x 4

chours x 2

intro x 1

and thts all of dj dj all you need to do now is work out the strumming good luck tell me 
you think email me at rhys_davy@hotmail.com

            
            
Suggest correction
Creating personal tab
Creating personal tab
You can edit any tab online and save it as your Personal.

You can edit, replace or remove any tab part or add personal notes – all changes will be seen only by you.

Personal tabs can be accessed anytime from any device, even offline.
Learn more »
Give kudos to tab author, rate the tab!
1 2 3 4 5
comments
print report bad tab
guest
You may want to rate the tab now too:
select rating
Wanna post a correction for this tab? Suggest correction