Oops, an error
Loading. Please wait.

Weigh On My Mind tab

version 1
version 1

Whole song

Interactive

1,420 views 3 this week
2 commentsread comments
1 2 3 4 5
1 last vote to show rating
add to favorites
×
Save as Personal and add changes to this tab that will be seen only by you. Learn more ›
×
You can save this tab as Personal to edit and correct it or add notes. All changes will be seen only by you. Learn more »
launch autoscroll
font size
0
reset
how to read this tab
guitar tuner
edit
Autoscroll
slow
fast
+/-
esc
set tempo
stop
                   The Transplants -Weigh on my mind-
 
Tabbed by:Samppa
 
Tuning:Standard  

Intro:

1st guitar  

e|-7---5---3------------7---5---3-----|
B|-8---5---3------------8---5---3-----|
G|-7---5---5------------7---5---5-----|
D|------------------------------------|
A|------------------------------------|
E|------------------------------------|     

2nd guitar    

e|-------------------------------------|
B|-------------------------------------|
G|------2/3\2-0----------------2/3\2-0-|
D|-------------------------------------|
A|-------------------------------------|
E|-------------------------------------|


Verse: Same as intro


Chorus:

e|----------------------|
B|----------------------|
G|-------------5--------|
D|--555---777--5--------|
A|--555---777--3--------|
E|--333---555-----------|

Great song!!!

            
            
Suggest correction
Creating personal tab
Creating personal tab
You can edit any tab online and save it as your Personal.

You can edit, replace or remove any tab part or add personal notes – all changes will be seen only by you.

Personal tabs can be accessed anytime from any device, even offline.
Learn more »
Give kudos to tab author, rate the tab!
1 2 3 4 5
comments
print report bad tab
2 comments total.
+1 reply
wolf_182 10 Feb 03, 2007 05:40 AM

i think out of the chords st the start, the last one is

-3-------3-|
-5--not--3-|
-5-------5-|
-----------|
-----------|
-----------|

0 reply
Jason182 21 May 08, 2011 12:51 AM

Also one more little mistake in the chorus:

Instead of this
e|----------------------|
B|----------------------|
G|-------------5--------|
D|--555---777--5--------|
A|--555---777--3--------|
E|--333---555-----------|

I think you should play it like this:

e|----------------------|
B|----------------------|
G|----------------------|
D|--555---777--5--------|
A|--555---777--3--------|
E|--333---555-----------|

The G string makes the C power-chord sound too high for this song

guest
Wanna post a correction for this tab? Suggest correction