Oops, an error
Loading. Please wait.

Amigos Para Que Tab

15 views 1 this week
no commentswrite comment
1 2 3 4 5
3 more votes to show rating
add to favorites
launch autoscroll
font size
0
reset
how to read this tab
guitar tuner
Autoscroll
slow
fast
+/-
esc
set tempo
stop
Help us to improve Ultimate-Guitar.com Take our survey!
×
si ven algo haci como 12/15, eso signifaca que se tienes que deslizar
del numero 12 al 15.


***Intro***

E---------------------------------
B----12--13--15---14--13----------
G---------------------------------
D---------------------------------
A---------------------------------
E---------------------------------


E---------------------------------
B--------------------9---12/15-15-
G---14/11-11---9--10--------------
D---------------------------------
A---------------------------------
E---------------------------------


E---------------------------------
B--17---15---13---13---15---17----
G---------------------------------
D---------------------------------
A---------------------------------
E---------------------------------


E---------------------------------
B---15---13---15/19/15-15---------
G---------------------------------
D---------------------------------
A---------------------------------
E---------------------------------


E---------------------------------
B---17---15---13-12---------------
G-------------------10/12-11-11---
D---------------------------------
A---------------------------------
E---------------------------------


***Estrofa***

G       D            Em
Se que juramos terminar
         D           C
que lo nuestro ya no va
        Am           D
que acabamos por llorar


G            D         Em
Se que es dificil olvidar
           D            C
lo que hablamos sin pensar
          Am        D
que nos pudo lastimar


C                    Am
se que el dia oscurecio
                       F
se que el tiempo ya paso
                      D
y otra vez me equivoque


***CORO***
G            Bm
Ven que no puedo mas
       G7             C
que te amo mas que a nadie
       D              G
ven y dime que no es tarde
          C           D
que lo intentas otra vez
      G               Bm
solo ven vuelveme a besar
         G7           C
que te quiero como a nada
       D            G
te prometo con el alma
          C         D
que por siempre estare.


***Estrofa***

G              D             Em
Se que es muy tarde para hablar
          D            C
que intentamos continuar
        Am              D7
que he falladao sin pensar
G           D           Em
Se que si miras hacia atras
         D            C
solo un poco encontraras
         Am             D7
nuestro amor es de verdad


C                    Am
se que el dia oscurecio
                       F
se que el tiempo ya paso
                      D
y otra vez me equivoque


***CORO*****
G            Bm
Ven que no puedo mas
       G7             C
que te amo mas que a nadie
       D              G
ven y dime que no es tarde
          C           D
que lo intentas otra vez
      G               Bm
solo ven vuelveme a besar
         G7           C
que te quiero como a nada
       D            G
te prometo con el alma
          C         D
que por siempre estare
G
para ti.


***Estrofa***

Tocar estrofa sin la letra.


***CORO*****
G            Bm
Ven que no puedo mas
       G7             C
que te amo mas que a nadie
       D              G
ven y dime que no es tarde
          C           D
que lo intentas otra vez
      G               Bm
solo ven vuelveme a besar
         G7           C
que te quiero como a nada
       D            G
te prometo con el alma
          C         D
que por siempre estare
G
para ti.
Suggest correction
Give kudos to tab author, rate the tab!
1 2 3 4 5
comments
print report bad tab
guest
You may want to rate the tab now too:
select rating
Wanna post a correction for this tab? Suggest correction