Oops, an error
Loading. Please wait.

Dile Bass Tab

23 views 1 this week
no commentswrite comment
1 2 3 4 5
3 more votes to show rating
add to favorites
launch autoscroll
font size
0
reset
guitar tuner
Autoscroll
slow
fast
+/-
esc
set tempo
stop
Help us to improve Ultimate-Guitar.com Take our survey!
×
Esta cancion es re linda
Intro
E|-------|-0-----|-----|---|--------|
A|--14/5-|-------|-----|---|--------|
D|-------|---4-6-|-4-2-|-4-|-----6--|
G|-------|-------|-----|---|-6-4----|

Dile que yo
E|--0-----|-----|---|---|-----|---|---|----|-------|--------|
A|--------|-----|---|---|-----|---|---|----|-------|--------|x2
D|----4-6-|-4-2-|-4-|-6-|-4-2-|-4-|-1-|-24-|-6-4-2-|-4h6-4--|
G|--------|-----|---|---|-----|---|---|----|-------|--------|

o talvez
E|-------------|
A|-------------|
D|------6------|
G|--6-4---4-6--|

Dile que me muero
E|------|---------|---------|-----22-|----------|
A|--2-2-|-6-------|---2-----|---42---|-6-4------|
D|------|---5-6-6-|-----2-2-|-21-----|-----6-4--|
G|------|---------|-4-------|--------|----------|

Dile que mi vida
E|------|---------|---------|--------|
A|--2-2-|-6-------|---2-----|--------|
D|------|---8-6-6-|-----2-2-|-2-2-4--|
G|------|---------|-4-------|--------|

Dile mi nueva
E|--0-----|-----|---|---|-----|---|-----|-------|-------|--------|
A|--------|-----|---|---|-----|---|-----|-------|-------|--------|
D|----4-6-|-4-2-|-4-|-6-|-4-2-|-4-|-1-1-|-6-4-2-|-4h6-4-|-6/8/0--|
G|--------|-----|---|---|-----|---|-----|-------|-------|--------|

Dile que me muero
E|------|---------|---------|-----22-|----------|
A|--2-2-|-6-6-----|---2-----|---42---|-6-4------|
D|------|-----6-6-|-----2-2-|-21-----|-----6-4--|
G|------|---------|-4-------|--------|----------|

Dile que mi vida
E|------|---------|---------|----------|----------|
A|--2-2-|-6-------|---2-----|-2--------|-6-4------|
D|------|---8-6-6-|-----2-2-|--2-2-4-4-|-----6-4--|
G|------|---------|-4-------|----------|----------|

Dile que yo
E|--0-----|-----|-2-2-2-2-2-2-2-2--|
A|--------|-----|------------------|
D|----4-6-|-4-2-|------------------|
G|--------|-----|------------------|

E|------|--------|---------|---------|-----------|
A|--2-2-|-66--6--|--2--2---|-7-7-9-9-|------7-9--|
D|------|------6-|------22-|---------|-----------|
G|------|----8---|-4--4----|---------|-9h11------|

Dile que me muero
E|------|---------|-------------|------------------|
A|--2-2-|-6--6----|--2---2------|-677-7999999------|
D|------|-----466-|---------2-2-|------------------|
G|------|--6------|-4-44--4-----|------------9h11--|

Dile que mi vida
E|------|---------|----------|-------------|
A|--2-2-|-66--6---|----2-----|-------------|
D|------|------66-|------2-2-|-222-444444--|
G|------|----8----|-24-------|-------------|

oh dile
E|------|---------|----------|---------------|
A|--2-2-|-6-------|----2-----|---------------|
D|------|---5-6-6-|------2-2-|-222-24444444--|
G|------|---------|-24-------|---------------|

E|------|---------|---------|----------|--------------------|
A|--2-2-|-6-------|---2-----|-777-9999-|--------------------|
D|------|---8-6-6-|------22-|----------|---------11-9-------|
G|------|---------|-44--4---|----------|-9h11-11------9h11--|

E|------|---------|--------|-----------|-------9-7------|
A|--2-2-|-6-------|---2----|-777-79999-|-7h9-9-----7h9--|
D|------|-----6-6-|-----22-|-----------|----------------|
G|------|---8-----|-24-----|----9------|----------------|

E|------|---------|----------|------------|-----------|
A|--2-2-|-66--6---|----2-----|------------|-----------|
D|------|------66-|------2-2-|-222-444444-|-24-24-24--|
G|------|----8----|-24-------|------------|-----------|

atte. miauricio gatolar
Suggest correction
Give kudos to tab author, rate the tab!
1 2 3 4 5
comments
print report bad tab
guest
You may want to rate the tab now too:
select rating
Wanna post a correction for this tab? Suggest correction