Oops, an error
Loading. Please wait.

Dile Tab

version 2
version 2

Whole song

43 views 3 this week
no commentswrite comment
1 2 3 4 5
3 more votes to show rating
add to favorites
launch autoscroll
font size
0
reset
how to read this tab
guitar tuner
×
Best way to learn
"Dile"
Autoscroll
slow
fast
+/-
esc
set tempo
stop
Hola a todos las otras transcripiciones suenan bien pero
le faltan algo espero les agrade la mia, esta es una buena
canción

HAY UN ACORDE QUE NO SE COMO SE LLAMA PERO LO LLAME E1
Acordes:

      E   F#  G#m   B  E1
  e---0-----2---4---2---1------
  B---0-----2---4---4---0------
  G---1-----3---4---4---1------
  D---2-----4---6---4---2------
  A---2-----4---6---2---2------
  E---0-----2---4---2---0------

      C    E7  Am   G   F   Fm
  e---0-----0---0---3---1----1--
  B---1-----0---1---3---1----1--
  G---0-----1---2---0---3----1--
  D---2-----0---2---0---2----3--
  A---3-----2---0---2---2----3--
  E---3-----0---0---3---1----1--


Intro
Primero se rasguea solo el acorde E1  y luego va esto:


    F#     B      G#m              F#      E F# E
  e--7---7-6-4-2---4--------4-2-1--------------------------
  B--------------2--------2-------4-2----7-4--9-3-----------
  G-----------------------------------------------------------
  D-----------------------------------------------------------
  A-----------------------------------------------------------
  E------------------------------------------------------------

NOTA: acuerdense de marcar los bajos


E1       F#               G#m F#
Dile que yo voy a estar, bien,
E          F#          G#m F#
  que no sera primera vez
E              F#
  dile que el tiempo borra,
B            G#m       F#       E
todo amor y todo amanecer, tal vez

E1         F#              G#m F#
Dile que me has visto mejor,
E               F#          G#m F#
  que hablo muy poco de su amor
E     F#             B
  que pronto voy a estar
            G#m               F#    E
amando a alguien mas como es normal o tal vez

Coro:

C           E7         Am
Dile que me muero por besarla,
          G                F
que en las noches vuelvo a amarla
       Fm               G
aunque no este junto a mi

C           E7           Am
Dile que mi vida es extrañarla,
          G           F
que si vuelve puedo amarla
       Fm             G
aunque no me quiera a mi


E1         F#           G#m F#
Dile mi nueva dirección
E             F#           G#m F#
  dile que me llame por favor,
E            F#     B
  dile que podemos hablar
      G#m            F#        E
de amistad como es normal  o tal vez.....

Coro:
C           E7         Am
Dile que me muero por besarla,
          G                F
que en las noches vuelvo a amarla
       Fm               G
aunque no este junto a mi

C           E7           Am
Dile que mi vida es extrañarla,
          G           F
que si vuelve puedo amarla
       Fm             G
aunque no me quiera a mi

E1       F#               G#m F#
Dile que yo voy a estar, bien,
          F#
O dile tal vez

e/-------------------------------------------------
b/-------------------------------------------------
g/-------6-----------------------------4p6-4p6-6h8-
D/-6-8-9---9-6-9-9-9-8-6-4---4-6-6-4-6-------------
A/-------------------------6-----------------------
E/-------------------------------------------------

e/-------------------------------2-2-4-2-----------
b/-7-7-9-7---7-9-7-5-5-4-2---2-4---------5-4-2-0---
g/---------8---------------------------------------
D/-------------------------4-----------------------
A/-------------------------------------------------
E/-------------------------------------------------

Coro:
C           E7         Am
Dile que me muero por besarla,
          G                F
que en las noches vuelvo a amarla
       Fm               G
aunque no este junto a mi

C           E7           Am
Dile que mi vida es extrañarla,
          G           F
que si vuelve puedo amarla
       Fm             G
aunque no me quiera a mi

   C    E7      Am  G  F   Fm     G
Oh oh Dile, oh oh dile,  hohooh, ...


BUENO ESPERO QUE LES SALGA LA CANCIÓN BIEN RIFADA

ME IDENTIFIQUE MUCHO CON LA ROLA Y SE LA DEDICO A UNA
CHAVA QUE SE LLAMA IRASEMA QUE A PESAR DE QUE NOS SEPARAMOS
UN TIEMPO ESTEMOS JUNTOS DE NUEVO PARA QUEDARNOS ASI;
 UN MUY, PERO MUY LARGO TIEMPO; DIGAMOS UNA ETERNIDAD.

ATTE VICTOR VIKE PANPECHE
Suggest correction
Give kudos to tab author, rate the tab!
1 2 3 4 5
comments
print report bad tab
guest
You may want to rate the tab now too:
select rating
Wanna post a correction for this tab? Suggest correction